  0
SECTION
  2
HEADER
  9
$ACADVER
  1
AC1018
  9
$ACADMAINTVER
 70
   104
  9
$DWGCODEPAGE
  3
ANSI_1250
  9
$INSBASE
 10
0.0
 20
0.0
 30
0.0
  9
$EXTMIN
 10
1.000000000000000E+20
 20
1.000000000000000E+20
 30
1.000000000000000E+20
  9
$EXTMAX
 10
-1.000000000000000E+20
 20
-1.000000000000000E+20
 30
-1.000000000000000E+20
  9
$LIMMIN
 10
0.0
 20
0.0
  9
$LIMMAX
 10
12.0
 20
9.0
  9
$ORTHOMODE
 70
     0
  9
$REGENMODE
 70
     1
  9
$FILLMODE
 70
     1
  9
$QTEXTMODE
 70
     0
  9
$MIRRTEXT
 70
     0
  9
$LTSCALE
 40
1.0
  9
$ATTMODE
 70
     1
  9
$TEXTSIZE
 40
0.2
  9
$TRACEWID
 40
0.05
  9
$TEXTSTYLE
  7
Standard
  9
$CLAYER
  8
0
  9
$CELTYPE
  6
ByLayer
  9
$CECOLOR
 62
   256
  9
$CELTSCALE
 40
1.0
  9
$DISPSILH
 70
     0
  9
$DIMSCALE
 40
1.0
  9
$DIMASZ
 40
0.18
  9
$DIMEXO
 40
0.0625
  9
$DIMDLI
 40
0.38
  9
$DIMRND
 40
0.0
  9
$DIMDLE
 40
0.0
  9
$DIMEXE
 40
0.18
  9
$DIMTP
 40
0.0
  9
$DIMTM
 40
0.0
  9
$DIMTXT
 40
0.18
  9
$DIMCEN
 40
0.09
  9
$DIMTSZ
 40
0.0
  9
$DIMTOL
 70
     0
  9
$DIMLIM
 70
     0
  9
$DIMTIH
 70
     1
  9
$DIMTOH
 70
     1
  9
$DIMSE1
 70
     0
  9
$DIMSE2
 70
     0
  9
$DIMTAD
 70
     0
  9
$DIMZIN
 70
     0
  9
$DIMBLK
  1

  9
$DIMASO
 70
     1
  9
$DIMSHO
 70
     1
  9
$DIMPOST
  1

  9
$DIMAPOST
  1

  9
$DIMALT
 70
     0
  9
$DIMALTD
 70
     2
  9
$DIMALTF
 40
25.4
  9
$DIMLFAC
 40
1.0
  9
$DIMTOFL
 70
     0
  9
$DIMTVP
 40
0.0
  9
$DIMTIX
 70
     0
  9
$DIMSOXD
 70
     0
  9
$DIMSAH
 70
     0
  9
$DIMBLK1
  1

  9
$DIMBLK2
  1

  9
$DIMSTYLE
  2
Standard
  9
$DIMCLRD
 70
     0
  9
$DIMCLRE
 70
     0
  9
$DIMCLRT
 70
     0
  9
$DIMTFAC
 40
1.0
  9
$DIMGAP
 40
0.09
  9
$DIMJUST
 70
     0
  9
$DIMSD1
 70
     0
  9
$DIMSD2
 70
     0
  9
$DIMTOLJ
 70
     1
  9
$DIMTZIN
 70
     0
  9
$DIMALTZ
 70
     0
  9
$DIMALTTZ
 70
     0
  9
$DIMUPT
 70
     0
  9
$DIMDEC
 70
     4
  9
$DIMTDEC
 70
     4
  9
$DIMALTU
 70
     2
  9
$DIMALTTD
 70
     2
  9
$DIMTXSTY
  7
Standard
  9
$DIMAUNIT
 70
     0
  9
$DIMADEC
 70
     0
  9
$DIMALTRND
 40
0.0
  9
$DIMAZIN
 70
     0
  9
$DIMDSEP
 70
    46
  9
$DIMATFIT
 70
     3
  9
$DIMFRAC
 70
     0
  9
$DIMLDRBLK
  1

  9
$DIMLUNIT
 70
     2
  9
$DIMLWD
 70
    -2
  9
$DIMLWE
 70
    -2
  9
$DIMTMOVE
 70
     0
  9
$LUNITS
 70
     2
  9
$LUPREC
 70
     4
  9
$SKETCHINC
 40
0.1
  9
$FILLETRAD
 40
0.0
  9
$AUNITS
 70
     0
  9
$AUPREC
 70
     0
  9
$MENU
  1
.
  9
$ELEVATION
 40
0.0
  9
$PELEVATION
 40
0.0
  9
$THICKNESS
 40
0.0
  9
$LIMCHECK
 70
     0
  9
$CHAMFERA
 40
0.0
  9
$CHAMFERB
 40
0.0
  9
$CHAMFERC
 40
0.0
  9
$CHAMFERD
 40
0.0
  9
$SKPOLY
 70
     0
  9
$TDCREATE
 40
2460012.435000000
  9
$TDUCREATE
 40
2460012.393333334
  9
$TDUPDATE
 40
2460012.435000000
  9
$TDUUPDATE
 40
2460012.393333334
  9
$TDINDWG
 40
0.0000000000
  9
$TDUSRTIMER
 40
0.0000000000
  9
$USRTIMER
 70
     1
  9
$ANGBASE
 50
0.0
  9
$ANGDIR
 70
     0
  9
$PDMODE
 70
     0
  9
$PDSIZE
 40
0.0
  9
$PLINEWID
 40
0.0
  9
$SPLFRAME
 70
     0
  9
$SPLINETYPE
 70
     6
  9
$SPLINESEGS
 70
     8
  9
$HANDSEED
  5
E5
  9
$SURFTAB1
 70
     6
  9
$SURFTAB2
 70
     6
  9
$SURFTYPE
 70
     6
  9
$SURFU
 70
     6
  9
$SURFV
 70
     6
  9
$UCSBASE
  2

  9
$UCSNAME
  2

  9
$UCSORG
 10
0.0
 20
0.0
 30
0.0
  9
$UCSXDIR
 10
1.0
 20
0.0
 30
0.0
  9
$UCSYDIR
 10
0.0
 20
1.0
 30
0.0
  9
$UCSORTHOREF
  2

  9
$UCSORTHOVIEW
 70
     0
  9
$UCSORGTOP
 10
0.0
 20
0.0
 30
0.0
  9
$UCSORGBOTTOM
 10
0.0
 20
0.0
 30
0.0
  9
$UCSORGLEFT
 10
0.0
 20
0.0
 30
0.0
  9
$UCSORGRIGHT
 10
0.0
 20
0.0
 30
0.0
  9
$UCSORGFRONT
 10
0.0
 20
0.0
 30
0.0
  9
$UCSORGBACK
 10
0.0
 20
0.0
 30
0.0
  9
$PUCSBASE
  2

  9
$PUCSNAME
  2

  9
$PUCSORG
 10
0.0
 20
0.0
 30
0.0
  9
$PUCSXDIR
 10
1.0
 20
0.0
 30
0.0
  9
$PUCSYDIR
 10
0.0
 20
1.0
 30
0.0
  9
$PUCSORTHOREF
  2

  9
$PUCSORTHOVIEW
 70
     0
  9
$PUCSORGTOP
 10
0.0
 20
0.0
 30
0.0
  9
$PUCSORGBOTTOM
 10
0.0
 20
0.0
 30
0.0
  9
$PUCSORGLEFT
 10
0.0
 20
0.0
 30
0.0
  9
$PUCSORGRIGHT
 10
0.0
 20
0.0
 30
0.0
  9
$PUCSORGFRONT
 10
0.0
 20
0.0
 30
0.0
  9
$PUCSORGBACK
 10
0.0
 20
0.0
 30
0.0
  9
$USERI1
 70
     0
  9
$USERI2
 70
     0
  9
$USERI3
 70
     0
  9
$USERI4
 70
     0
  9
$USERI5
 70
     0
  9
$USERR1
 40
0.0
  9
$USERR2
 40
0.0
  9
$USERR3
 40
0.0
  9
$USERR4
 40
0.0
  9
$USERR5
 40
0.0
  9
$WORLDVIEW
 70
     1
  9
$SHADEDGE
 70
     3
  9
$SHADEDIF
 70
    70
  9
$TILEMODE
 70
     1
  9
$MAXACTVP
 70
    64
  9
$PINSBASE
 10
0.0
 20
0.0
 30
0.0
  9
$PLIMCHECK
 70
     0
  9
$PEXTMIN
 10
1.000000000000000E+20
 20
1.000000000000000E+20
 30
1.000000000000000E+20
  9
$PEXTMAX
 10
-1.000000000000000E+20
 20
-1.000000000000000E+20
 30
-1.000000000000000E+20
  9
$PLIMMIN
 10
0.0
 20
0.0
  9
$PLIMMAX
 10
12.0
 20
9.0
  9
$UNITMODE
 70
     0
  9
$VISRETAIN
 70
     1
  9
$PLINEGEN
 70
     0
  9
$PSLTSCALE
 70
     1
  9
$TREEDEPTH
 70
  3020
  9
$CMLSTYLE
  2
Standard
  9
$CMLJUST
 70
     0
  9
$CMLSCALE
 40
1.0
  9
$PROXYGRAPHICS
 70
     1
  9
$MEASUREMENT
 70
     0
  9
$CELWEIGHT
370
    -1
  9
$ENDCAPS
280
     0
  9
$JOINSTYLE
280
     0
  9
$LWDISPLAY
290
     1
  9
$INSUNITS
 70
     4
  9
$HYPERLINKBASE
  1

  9
$STYLESHEET
  1

  9
$XEDIT
290
     1
  9
$CEPSNTYPE
380
     0
  9
$PSTYLEMODE
290
     1
  9
$FINGERPRINTGUID
  2
{435DEC4E-3D4C-064B-9848-32AB6A396503}
  9
$VERSIONGUID
  2
{C58591BE-C4E2-4149-8459-14D1168D9834}
  9
$EXTNAMES
290
     1
  9
$PSVPSCALE
 40
0.0
  9
$OLESTARTUP
290
     0
  9
$SORTENTS
280
   127
  9
$INDEXCTL
280
     0
  9
$HIDETEXT
280
     1
  9
$XCLIPFRAME
290
     0
  9
$HALOGAP
280
     0
  9
$OBSCOLOR
 70
   257
  9
$OBSLTYPE
280
     0
  9
$INTERSECTIONDISPLAY
280
     0
  9
$INTERSECTIONCOLOR
 70
   257
  9
$DIMASSOC
280
     2
  9
$PROJECTNAME
  1

  0
ENDSEC
  0
SECTION
  2
CLASSES
  0
CLASS
  1
ACDBDICTIONARYWDFLT
  2
AcDbDictionaryWithDefault
  3
ObjectDBX Classes
 90
        0
 91
        1
280
     0
281
     0
  0
CLASS
  1
MATERIAL
  2
AcDbMaterial
  3
ObjectDBX Classes
 90
     1153
 91
        3
280
     0
281
     0
  0
CLASS
  1
VISUALSTYLE
  2
AcDbVisualStyle
  3
ObjectDBX Classes
 90
     4095
 91
       24
280
     0
281
     0
  0
CLASS
  1
SCALE
  2
AcDbScale
  3
ObjectDBX Classes
 90
     1153
 91
       17
280
     0
281
     0
  0
CLASS
  1
TABLESTYLE
  2
AcDbTableStyle
  3
ObjectDBX Classes
 90
     4095
 91
        1
280
     0
281
     0
  0
CLASS
  1
MLEADERSTYLE
  2
AcDbMLeaderStyle
  3
ACDB_MLEADERSTYLE_CLASS
 90
     4095
 91
        1
280
     0
281
     0
  0
CLASS
  1
ACDBSECTIONVIEWSTYLE
  2
AcDbSectionViewStyle
  3
ObjectDBX Classes
 90
     1025
 91
        1
280
     0
281
     0
  0
CLASS
  1
ACDBDETAILVIEWSTYLE
  2
AcDbDetailViewStyle
  3
ObjectDBX Classes
 90
     1025
 91
        1
280
     0
281
     0
  0
CLASS
  1
DICTIONARYVAR
  2
AcDbDictionaryVar
  3
ObjectDBX Classes
 90
        0
 91
       10
280
     0
281
     0
  0
CLASS
  1
CELLSTYLEMAP
  2
AcDbCellStyleMap
  3
ObjectDBX Classes
 90
     1152
 91
        1
280
     0
281
     0
  0
ENDSEC
  0
SECTION
  2
TABLES
  0
TABLE
  2
VPORT
  5
8
330
0
100
AcDbSymbolTable
 70
     1
  0
VPORT
  5
57
330
8
100
AcDbSymbolTableRecord
100
AcDbViewportTableRecord
  2
*Active
 70
     0
 10
0.0
 20
0.0
 11
1.0
 21
1.0
 12
0.0
 22
0.0
 13
0.0
 23
0.0
 14
1.0
 24
1.0
 15
0.0
 25
0.0
 16
0.0
 26
0.0
 36
1.0
 17
194.0465425046805
 27
-174.4299948788664
 37
0.0
 40
394.4842145148504
 41
0.9364017597710619
 42
50.0
 43
0.0
 44
0.0
 50
0.0
 51
0.0
 71
     0
 72
   100
 73
     1
 74
     1
 75
     0
 76
     0
 77
     0
 78
     0
281
     0
 65
     1
110
0.0
120
0.0
130
0.0
111
1.0
121
0.0
131
0.0
112
0.0
122
1.0
132
0.0
 79
     0
146
0.0
  0
ENDTAB
  0
TABLE
  2
LTYPE
  5
5
330
0
100
AcDbSymbolTable
 70
     1
  0
LTYPE
  5
5B
330
5
100
AcDbSymbolTableRecord
100
AcDbLinetypeTableRecord
  2
ByBlock
 70
     0
  3

 72
    65
 73
     0
 40
0.0
  0
LTYPE
  5
5C
330
5
100
AcDbSymbolTableRecord
100
AcDbLinetypeTableRecord
  2
ByLayer
 70
     0
  3

 72
    65
 73
     0
 40
0.0
  0
LTYPE
  5
5D
330
5
100
AcDbSymbolTableRecord
100
AcDbLinetypeTableRecord
  2
Continuous
 70
     0
  3
Solid line
 72
    65
 73
     0
 40
0.0
  0
ENDTAB
  0
TABLE
  2
LAYER
  5
2
330
0
100
AcDbSymbolTable
 70
     3
  0
LAYER
  5
54
330
2
100
AcDbSymbolTableRecord
100
AcDbLayerTableRecord
  2
0
 70
     0
 62
     7
  6
Continuous
370
    -3
390
F
  0
LAYER
  5
78
330
2
100
AcDbSymbolTableRecord
100
AcDbLayerTableRecord
  2
Layer 1
 70
     0
 62
     7
  6
Continuous
370
     0
390
F
  0
LAYER
  5
7B
330
2
100
AcDbSymbolTableRecord
100
AcDbLayerTableRecord
  2
Layer 2
 70
     0
 62
     7
  6
Continuous
370
     0
390
F
  0
ENDTAB
  0
TABLE
  2
STYLE
  5
3
330
0
100
AcDbSymbolTable
 70
     2
  0
STYLE
  5
55
330
3
100
AcDbSymbolTableRecord
100
AcDbTextStyleTableRecord
  2
Standard
 70
     0
 40
0.0
 41
1.0
 50
0.0
 71
     0
 42
0.2
  3
txt
  4

  0
STYLE
  5
5A
330
3
100
AcDbSymbolTableRecord
100
AcDbTextStyleTableRecord
  2
Annotative
 70
     0
 40
0.0
 41
1.0
 50
0.0
 71
     0
 42
0.2
  3
txt
  4

1001
AcadAnnotative
1000
AnnotativeData
1002
{
1070
     1
1070
     1
1002
}
  0
ENDTAB
  0
TABLE
  2
VIEW
  5
6
330
0
100
AcDbSymbolTable
 70
     0
  0
ENDTAB
  0
TABLE
  2
UCS
  5
7
330
0
100
AcDbSymbolTable
 70
     0
  0
ENDTAB
  0
TABLE
  2
APPID
  5
9
330
0
100
AcDbSymbolTable
 70
     3
  0
APPID
  5
56
330
9
100
AcDbSymbolTableRecord
100
AcDbRegAppTableRecord
  2
ACAD
 70
     0
  0
APPID
  5
5E
330
9
100
AcDbSymbolTableRecord
100
AcDbRegAppTableRecord
  2
AcadAnnotative
 70
     0
  0
APPID
  5
DE
330
9
100
AcDbSymbolTableRecord
100
AcDbRegAppTableRecord
  2
ACAD_MLEADERVER
 70
     0
  0
ENDTAB
  0
TABLE
  2
DIMSTYLE
  5
A
330
0
100
AcDbSymbolTable
 70
     2
100
AcDbDimStyleTable
 71
     0
  0
DIMSTYLE
105
58
330
A
100
AcDbSymbolTableRecord
100
AcDbDimStyleTableRecord
  2
Standard
 70
     0
340
55
  0
DIMSTYLE
105
59
330
A
100
AcDbSymbolTableRecord
100
AcDbDimStyleTableRecord
  2
Annotative
 70
     0
340
55
1001
AcadAnnotative
1000
AnnotativeData
1002
{
1070
     1
1070
     1
1002
}
  0
ENDTAB
  0
TABLE
  2
BLOCK_RECORD
  5
1
330
0
100
AcDbSymbolTable
 70
     1
  0
BLOCK_RECORD
  5
70
330
1
100
AcDbSymbolTableRecord
100
AcDbBlockTableRecord
  2
*Model_Space
340
73
  0
BLOCK_RECORD
  5
6C
330
1
100
AcDbSymbolTableRecord
100
AcDbBlockTableRecord
  2
*Paper_Space
340
6F
  0
BLOCK_RECORD
  5
74
330
1
100
AcDbSymbolTableRecord
100
AcDbBlockTableRecord
  2
*Paper_Space0
340
77
  0
ENDTAB
  0
ENDSEC
  0
SECTION
  2
BLOCKS
  0
BLOCK
  5
71
330
70
100
AcDbEntity
  8
0
100
AcDbBlockBegin
  2
*Model_Space
 70
     0
 10
0.0
 20
0.0
 30
0.0
  3
*Model_Space
  1

  0
ENDBLK
  5
72
330
70
100
AcDbEntity
  8
0
100
AcDbBlockEnd
  0
BLOCK
  5
6D
330
6C
100
AcDbEntity
 67
     1
  8
0
100
AcDbBlockBegin
  2
*Paper_Space
 70
     0
 10
0.0
 20
0.0
 30
0.0
  3
*Paper_Space
  1

  0
ENDBLK
  5
6E
330
6C
100
AcDbEntity
 67
     1
  8
0
100
AcDbBlockEnd
  0
BLOCK
  5
75
330
74
100
AcDbEntity
 67
     1
  8
0
100
AcDbBlockBegin
  2
*Paper_Space0
 70
     0
 10
0.0
 20
0.0
 30
0.0
  3
*Paper_Space0
  1

  0
ENDBLK
  5
76
330
74
100
AcDbEntity
 67
     1
  8
0
100
AcDbBlockEnd
  0
ENDSEC
  0
SECTION
  2
ENTITIES
  0
SPLINE
  5
79
330
70
100
AcDbEntity
  8
Layer 1
100
AcDbSpline
210
0.0
220
0.0
230
1.0
 70
     9
 71
     3
 72
   101
 73
    97
 74
     0
 42
0.0000000001
 43
0.0000000001
 40
0.0
 40
0.0
 40
0.0
 40
0.0
 40
1.0
 40
1.0
 40
1.0
 40
2.0
 40
2.0
 40
2.0
 40
3.0
 40
3.0
 40
3.0
 40
4.0
 40
4.0
 40
4.0
 40
5.0
 40
5.0
 40
5.0
 40
6.0
 40
6.0
 40
6.0
 40
7.0
 40
7.0
 40
7.0
 40
8.0
 40
8.0
 40
8.0
 40
9.0
 40
9.0
 40
9.0
 40
10.0
 40
10.0
 40
10.0
 40
11.0
 40
11.0
 40
11.0
 40
12.0
 40
12.0
 40
12.0
 40
13.0
 40
13.0
 40
13.0
 40
14.0
 40
14.0
 40
14.0
 40
15.0
 40
15.0
 40
15.0
 40
16.0
 40
16.0
 40
16.0
 40
17.0
 40
17.0
 40
17.0
 40
18.0
 40
18.0
 40
18.0
 40
19.0
 40
19.0
 40
19.0
 40
20.0
 40
20.0
 40
20.0
 40
21.0
 40
21.0
 40
21.0
 40
22.0
 40
22.0
 40
22.0
 40
23.0
 40
23.0
 40
23.0
 40
24.0
 40
24.0
 40
24.0
 40
25.0
 40
25.0
 40
25.0
 40
26.0
 40
26.0
 40
26.0
 40
27.0
 40
27.0
 40
27.0
 40
28.0
 40
28.0
 40
28.0
 40
29.0
 40
29.0
 40
29.0
 40
30.0
 40
30.0
 40
30.0
 40
31.0
 40
31.0
 40
31.0
 40
32.0
 40
32.0
 40
32.0
 40
32.0
 10
261.3686559206572
 20
-61.505770065326
 30
0.0
 10
261.3686559206572
 20
-61.505770065326
 30
0.0
 10
261.3929404741793
 20
-69.84107630676994
 30
0.0
 10
261.3929404741793
 20
-69.84107630676994
 30
0.0
 10
261.3929404741793
 20
-69.84107630676994
 30
0.0
 10
256.7582038052626
 20
-69.85547491670544
 30
0.0
 10
256.7582038052626
 20
-69.85547491670544
 30
0.0
 10
256.7582038052626
 20
-69.85547491670544
 30
0.0
 10
256.7819671882676
 20
-77.50415218222052
 30
0.0
 10
256.7819671882676
 20
-77.50415218222052
 30
0.0
 10
256.7819671882676
 20
-77.50415218222052
 30
0.0
 10
261.2534949624275
 20
-77.49026060890885
 30
0.0
 10
261.2534949624275
 20
-77.49026060890885
 30
0.0
 10
261.2534949624275
 20
-77.49026060890885
 30
0.0
 10
261.4449718411428
 20
-83.82192434669661
 30
0.0
 10
261.4449718411428
 20
-83.82192434669661
 30
0.0
 10
261.4449718411428
 20
-83.82192434669661
 30
0.0
 10
269.3452548183751
 20
-80.79892891317516
 30
0.0
 10
269.761546880505
 20
-75.14787559515331
 30
0.0
 10
270.1778389426446
 20
-69.496822277134
 30
0.0
 10
269.9741120738154
 20
-71.13572096478691
 30
0.0
 10
269.9741120738154
 20
-71.13572096478691
 30
0.0
 10
269.9741120738154
 20
-71.13572096478691
 30
0.0
 10
271.57066427986
 20
-70.24350857434675
 30
0.0
 10
271.57066427986
 20
-70.24350857434675
 30
0.0
 10
271.57066427986
 20
-70.24350857434675
 30
0.0
 10
272.5615355108835
 20
-70.56505904125316
 30
0.0
 10
272.5615355108835
 20
-70.56505904125316
 30
0.0
 10
272.5615355108835
 20
-70.56505904125316
 30
0.0
 10
272.9106893838051
 20
-70.84315560624235
 30
0.0
 10
272.9106893838051
 20
-70.84315560624235
 30
0.0
 10
272.9106893838051
 20
-70.84315560624235
 30
0.0
 10
273.4936728787609
 20
-71.62727130161634
 30
0.0
 10
273.4936728787609
 20
-71.62727130161634
 30
0.0
 10
273.4936728787609
 20
-71.62727130161634
 30
0.0
 10
269.8408758493399
 20
-74.05489017809969
 30
0.0
 10
272.7176430382748
 20
-77.1923540753108
 30
0.0
 10
274.2344534660904
 20
-78.84662000773502
 30
0.0
 10
276.2693755510317
 20
-78.13956313166679
 30
0.0
 10
277.1380556355234
 20
-77.32545549598802
 30
0.0
 10
278.331732543778
 20
-76.20676807251
 30
0.0
 10
278.3104530149639
 20
-74.04604602393298
 30
0.0
 10
278.3059165673314
 20
-72.61134722484837
 30
0.0
 10
278.2980787894198
 20
-70.13256835235198
 30
0.0
 10
278.2779392965289
 20
-11.71673589221535
 30
0.0
 10
278.2779392965289
 20
-11.71673589221535
 30
0.0
 10
278.2779392965289
 20
-11.71673589221535
 30
0.0
 10
277.6497434625312
 20
-8.819859826924028
 30
0.0
 10
273.9951107934762
 20
-9.344555750622241
 30
0.0
 10
270.3404781244213
 20
-9.869251674321736
 30
0.0
 10
271.4765647160175
 20
-13.45949819313961
 30
0.0
 10
271.5769790472051
 20
-13.65349516036656
 30
0.0
 10
271.6773933783933
 20
-13.84749212759094
 30
0.0
 10
272.2800807506482
 20
-15.01480405445402
 30
0.0
 10
273.3377053480692
 20
-15.56667206957324
 30
0.0
 10
273.5036529940208
 20
-15.48252443345279
 30
0.0
 10
273.8753016405807
 20
-18.02445538016015
 30
0.0
 10
269.9418587408164
 20
-16.5974898915171
 30
0.0
 10
269.9418587408164
 20
-16.5974898915171
 30
0.0
 10
270.2291234279049
 20
-10.46093495468412
 30
0.0
 10
268.1377786493438
 20
-7.73658571204647
 30
0.0
 10
266.0464338707744
 20
-5.012236469410425
 30
0.0
 10
264.2433281631302
 20
-3.906828900536805
 30
0.0
 10
261.1941828615093
 20
-3.741252901870003
 30
0.0
 10
261.1941828615093
 20
-3.741252901870003
 30
0.0
 10
261.2160994956575
 20
-10.15071184530136
 30
0.0
 10
261.2160994956575
 20
-10.15071184530136
 30
0.0
 10
261.2160994956575
 20
-10.15071184530136
 30
0.0
 10
256.5813628267415
 20
-10.16511045523591
 30
0.0
 10
256.5813628267415
 20
-10.16511045523591
 30
0.0
 10
256.5813628267415
 20
-10.16511045523591
 30
0.0
 10
256.6051204782016
 20
-17.81240827692444
 30
0.0
 10
256.6051204782016
 20
-17.81240827692444
 30
0.0
 10
256.6051204782016
 20
-17.81240827692444
 30
0.0
 10
261.2398571471176
 20
-17.79800966699118
 30
0.0
 10
261.2398571471176
 20
-17.79800966699118
 30
0.0
 10
261.2398571471176
 20
-17.79800966699118
 30
0.0
 10
261.2639026617726
 20
-25.53796713500054
 30
0.0
 10
261.2639026617726
 20
-25.53796713500054
 30
0.0
 10
261.2639026617726
 20
-25.53796713500054
 30
0.0
 10
266.5446953267411
 20
-33.71099711190386
 30
0.0
 10
267.0824717989871
 20
-37.50124597396182
 30
0.0
 10
267.6202482712323
 20
-41.2914948360169
 30
0.0
 10
267.750569841614
 20
-42.18726688605906
 30
0.0
 10
267.750569841614
 20
-42.18726688605906
 30
0.0
 10
267.750569841614
 20
-42.18726688605906
 30
0.0
 10
272.9627725259965
 20
-42.18726688605906
 30
0.0
 10
272.9627725259965
 20
-42.18726688605906
 30
0.0
 10
272.9627725259965
 20
-42.18726688605906
 30
0.0
 10
272.9446576484871
 20
-45.1818262298394
 30
0.0
 10
272.9446576484871
 20
-45.1818262298394
 30
0.0
 10
272.9446576484871
 20
-45.1818262298394
 30
0.0
 10
267.8106153624542
 20
-45.1818262298394
 30
0.0
 10
267.8106153624542
 20
-45.1818262298394
 30
0.0
 10
267.8106153624542
 20
-45.1818262298394
 30
0.0
 10
266.6639701188391
 20
-56.78329707242917
 30
0.0
 10
261.3686559206572
 20
-61.505770065326
 30
0.0
  0
HATCH
  5
7A
330
70
100
AcDbEntity
  8
Layer 1
 62
   255
440
 33554687
100
AcDbHatch
 10
0.0
 20
0.0
 30
0.0
210
0.0
220
0.0
230
1.0
  2
SOLID
 70
     1
 71
     1
 91
        1
 92
        1
 93
        1
 72
     4
 94
        3
 73
     0
 74
     0
 95
      101
 96
       97
 40
0.0
 40
0.0
 40
0.0
 40
0.0
 40
1.0
 40
1.0
 40
1.0
 40
2.0
 40
2.0
 40
2.0
 40
3.0
 40
3.0
 40
3.0
 40
4.0
 40
4.0
 40
4.0
 40
5.0
 40
5.0
 40
5.0
 40
6.0
 40
6.0
 40
6.0
 40
7.0
 40
7.0
 40
7.0
 40
8.0
 40
8.0
 40
8.0
 40
9.0
 40
9.0
 40
9.0
 40
10.0
 40
10.0
 40
10.0
 40
11.0
 40
11.0
 40
11.0
 40
12.0
 40
12.0
 40
12.0
 40
13.0
 40
13.0
 40
13.0
 40
14.0
 40
14.0
 40
14.0
 40
15.0
 40
15.0
 40
15.0
 40
16.0
 40
16.0
 40
16.0
 40
17.0
 40
17.0
 40
17.0
 40
18.0
 40
18.0
 40
18.0
 40
19.0
 40
19.0
 40
19.0
 40
20.0
 40
20.0
 40
20.0
 40
21.0
 40
21.0
 40
21.0
 40
22.0
 40
22.0
 40
22.0
 40
23.0
 40
23.0
 40
23.0
 40
24.0
 40
24.0
 40
24.0
 40
25.0
 40
25.0
 40
25.0
 40
26.0
 40
26.0
 40
26.0
 40
27.0
 40
27.0
 40
27.0
 40
28.0
 40
28.0
 40
28.0
 40
29.0
 40
29.0
 40
29.0
 40
30.0
 40
30.0
 40
30.0
 40
31.0
 40
31.0
 40
31.0
 40
32.0
 40
32.0
 40
32.0
 40
32.0
 10
261.3686559206572
 20
-61.505770065326
 10
261.3686559206572
 20
-61.505770065326
 10
261.3929404741793
 20
-69.84107630676994
 10
261.3929404741793
 20
-69.84107630676994
 10
261.3929404741793
 20
-69.84107630676994
 10
256.7582038052626
 20
-69.85547491670544
 10
256.7582038052626
 20
-69.85547491670544
 10
256.7582038052626
 20
-69.85547491670544
 10
256.7819671882676
 20
-77.50415218222052
 10
256.7819671882676
 20
-77.50415218222052
 10
256.7819671882676
 20
-77.50415218222052
 10
261.2534949624275
 20
-77.49026060890885
 10
261.2534949624275
 20
-77.49026060890885
 10
261.2534949624275
 20
-77.49026060890885
 10
261.4449718411428
 20
-83.82192434669661
 10
261.4449718411428
 20
-83.82192434669661
 10
261.4449718411428
 20
-83.82192434669661
 10
269.3452548183751
 20
-80.79892891317516
 10
269.761546880505
 20
-75.14787559515331
 10
270.1778389426446
 20
-69.496822277134
 10
269.9741120738154
 20
-71.13572096478691
 10
269.9741120738154
 20
-71.13572096478691
 10
269.9741120738154
 20
-71.13572096478691
 10
271.57066427986
 20
-70.24350857434675
 10
271.57066427986
 20
-70.24350857434675
 10
271.57066427986
 20
-70.24350857434675
 10
272.5615355108835
 20
-70.56505904125316
 10
272.5615355108835
 20
-70.56505904125316
 10
272.5615355108835
 20
-70.56505904125316
 10
272.9106893838051
 20
-70.84315560624235
 10
272.9106893838051
 20
-70.84315560624235
 10
272.9106893838051
 20
-70.84315560624235
 10
273.4936728787609
 20
-71.62727130161634
 10
273.4936728787609
 20
-71.62727130161634
 10
273.4936728787609
 20
-71.62727130161634
 10
269.8408758493399
 20
-74.05489017809969
 10
272.7176430382748
 20
-77.1923540753108
 10
274.2344534660904
 20
-78.84662000773502
 10
276.2693755510317
 20
-78.13956313166679
 10
277.1380556355234
 20
-77.32545549598802
 10
278.331732543778
 20
-76.20676807251
 10
278.3104530149639
 20
-74.04604602393298
 10
278.3059165673314
 20
-72.61134722484837
 10
278.2980787894198
 20
-70.13256835235198
 10
278.2779392965289
 20
-11.71673589221535
 10
278.2779392965289
 20
-11.71673589221535
 10
278.2779392965289
 20
-11.71673589221535
 10
277.6497434625312
 20
-8.819859826924028
 10
273.9951107934762
 20
-9.344555750622241
 10
270.3404781244213
 20
-9.869251674321736
 10
271.4765647160175
 20
-13.45949819313961
 10
271.5769790472051
 20
-13.65349516036656
 10
271.6773933783933
 20
-13.84749212759094
 10
272.2800807506482
 20
-15.01480405445402
 10
273.3377053480692
 20
-15.56667206957324
 10
273.5036529940208
 20
-15.48252443345279
 10
273.8753016405807
 20
-18.02445538016015
 10
269.9418587408164
 20
-16.5974898915171
 10
269.9418587408164
 20
-16.5974898915171
 10
270.2291234279049
 20
-10.46093495468412
 10
268.1377786493438
 20
-7.73658571204647
 10
266.0464338707744
 20
-5.012236469410425
 10
264.2433281631302
 20
-3.906828900536805
 10
261.1941828615093
 20
-3.741252901870003
 10
261.1941828615093
 20
-3.741252901870003
 10
261.2160994956575
 20
-10.15071184530136
 10
261.2160994956575
 20
-10.15071184530136
 10
261.2160994956575
 20
-10.15071184530136
 10
256.5813628267415
 20
-10.16511045523591
 10
256.5813628267415
 20
-10.16511045523591
 10
256.5813628267415
 20
-10.16511045523591
 10
256.6051204782016
 20
-17.81240827692444
 10
256.6051204782016
 20
-17.81240827692444
 10
256.6051204782016
 20
-17.81240827692444
 10
261.2398571471176
 20
-17.79800966699118
 10
261.2398571471176
 20
-17.79800966699118
 10
261.2398571471176
 20
-17.79800966699118
 10
261.2639026617726
 20
-25.53796713500054
 10
261.2639026617726
 20
-25.53796713500054
 10
261.2639026617726
 20
-25.53796713500054
 10
266.5446953267411
 20
-33.71099711190386
 10
267.0824717989871
 20
-37.50124597396182
 10
267.6202482712323
 20
-41.2914948360169
 10
267.750569841614
 20
-42.18726688605906
 10
267.750569841614
 20
-42.18726688605906
 10
267.750569841614
 20
-42.18726688605906
 10
272.9627725259965
 20
-42.18726688605906
 10
272.9627725259965
 20
-42.18726688605906
 10
272.9627725259965
 20
-42.18726688605906
 10
272.9446576484871
 20
-45.1818262298394
 10
272.9446576484871
 20
-45.1818262298394
 10
272.9446576484871
 20
-45.1818262298394
 10
267.8106153624542
 20
-45.1818262298394
 10
267.8106153624542
 20
-45.1818262298394
 10
267.8106153624542
 20
-45.1818262298394
 10
266.6639701188391
 20
-56.78329707242917
 10
261.3686559206572
 20
-61.505770065326
 97
        1
330
79
 75
     2
 76
     1
 98
        1
 10
0.0
 20
0.0
450
        0
451
        0
460
0.0
461
0.0
452
        0
462
0.0
453
        0
470

  0
SPLINE
  5
7C
330
70
100
AcDbEntity
  8
Layer 2
100
AcDbSpline
210
0.0
220
0.0
230
1.0
 70
     9
 71
     3
 72
    86
 73
    82
 74
     0
 42
0.0000000001
 43
0.0000000001
 40
0.0
 40
0.0
 40
0.0
 40
0.0
 40
1.0
 40
1.0
 40
1.0
 40
2.0
 40
2.0
 40
2.0
 40
3.0
 40
3.0
 40
3.0
 40
4.0
 40
4.0
 40
4.0
 40
5.0
 40
5.0
 40
5.0
 40
6.0
 40
6.0
 40
6.0
 40
7.0
 40
7.0
 40
7.0
 40
8.0
 40
8.0
 40
8.0
 40
9.0
 40
9.0
 40
9.0
 40
10.0
 40
10.0
 40
10.0
 40
11.0
 40
11.0
 40
11.0
 40
12.0
 40
12.0
 40
12.0
 40
13.0
 40
13.0
 40
13.0
 40
14.0
 40
14.0
 40
14.0
 40
15.0
 40
15.0
 40
15.0
 40
16.0
 40
16.0
 40
16.0
 40
17.0
 40
17.0
 40
17.0
 40
18.0
 40
18.0
 40
18.0
 40
19.0
 40
19.0
 40
19.0
 40
20.0
 40
20.0
 40
20.0
 40
21.0
 40
21.0
 40
21.0
 40
22.0
 40
22.0
 40
22.0
 40
23.0
 40
23.0
 40
23.0
 40
24.0
 40
24.0
 40
24.0
 40
25.0
 40
25.0
 40
25.0
 40
26.0
 40
26.0
 40
26.0
 40
27.0
 40
27.0
 40
27.0
 40
27.0
 10
331.4384750944453
 20
-152.4750590635362
 30
0.0
 10
333.9495648044601
 20
-155.4746199651321
 30
0.0
 10
332.0115751097485
 20
-159.6972283904987
 30
0.0
 10
332.0115751097485
 20
-159.6972283904987
 30
0.0
 10
332.0115751097485
 20
-159.6972283904987
 30
0.0
 10
325.6346297340901
 20
-159.6800137665576
 30
0.0
 10
325.6346297340901
 20
-159.6800137665576
 30
0.0
 10
325.6346297340901
 20
-159.6800137665576
 30
0.0
 10
325.679337858882
 20
-157.1759405834888
 30
0.0
 10
325.679337858882
 20
-157.1759405834888
 30
0.0
 10
325.679337858882
 20
-157.1759405834888
 30
0.0
 10
318.0306309534885
 20
-157.1759405834888
 30
0.0
 10
318.0306309534885
 20
-157.1759405834888
 30
0.0
 10
318.0306309534885
 20
-157.1759405834888
 30
0.0
 10
318.0306309534885
 20
-159.6886210785259
 30
0.0
 10
318.0306309534885
 20
-159.6886210785259
 30
0.0
 10
318.0306309534885
 20
-159.6886210785259
 30
0.0
 10
310.225645201164
 20
-159.6901429510769
 30
0.0
 10
310.225645201164
 20
-159.6901429510769
 30
0.0
 10
309.8999644751437
 20
-159.9016083895498
 30
0.0
 10
301.971557353759
 20
-165.0300943496195
 30
0.0
 10
298.2568161478676
 20
-165.5375265762636
 30
0.0
 10
297.0141697864525
 20
-165.7072527888551
 30
0.0
 10
296.0866508381225
 20
-165.903549399272
 30
0.0
 10
295.3606926823188
 20
-166.020209662403
 30
0.0
 10
294.6849812694381
 20
-166.1287865368992
 30
0.0
 10
293.7802405119238
 20
-166.1755404575768
 30
0.0
 10
293.0958469408839
 20
-166.1743678672526
 30
0.0
 10
293.0958469408839
 20
-166.1743678672526
 30
0.0
 10
290.4937941600019
 20
-166.1699519419788
 30
0.0
 10
290.4937941600019
 20
-166.1699519419788
 30
0.0
 10
289.9300027514833
 20
-166.1689789414982
 30
0.0
 10
289.369579421567
 20
-166.1256429968755
 30
0.0
 10
288.8125491189803
 20
-166.0385719279403
 30
0.0
 10
286.8183472044155
 20
-165.7269123883726
 30
0.0
 10
282.0043649391732
 20
-164.7919836671284
 30
0.0
 10
278.0546565908245
 20
-162.5935015484326
 30
0.0
 10
276.9666175114054
 20
-161.9330837072605
 30
0.0
 10
275.930771175882
 20
-161.1935783908729
 30
0.0
 10
274.9538786901811
 20
-160.3714179308283
 30
0.0
 10
274.71611728992
 20
-160.1465300754242
 30
0.0
 10
274.4874871249685
 20
-159.9147314217159
 30
0.0
 10
274.27327732616
 20
-159.673028122058
 30
0.0
 10
274.27327732616
 20
-159.673028122058
 30
0.0
 10
265.9439940054707
 20
-159.6714064545842
 30
0.0
 10
265.9439940054707
 20
-159.6714064545842
 30
0.0
 10
265.9439940054707
 20
-159.6714064545842
 30
0.0
 10
265.9439940054707
 20
-157.1587259595413
 30
0.0
 10
265.9439940054707
 20
-157.1587259595413
 30
0.0
 10
265.9439940054707
 20
-157.1587259595413
 30
0.0
 10
258.2952871000766
 20
-157.1587259595413
 30
0.0
 10
258.2952871000766
 20
-157.1587259595413
 30
0.0
 10
258.2952871000766
 20
-157.1587259595413
 30
0.0
 10
258.2952871000766
 20
-159.5082168093452
 30
0.0
 10
258.2952871000766
 20
-159.5082168093452
 30
0.0
 10
258.2952871000766
 20
-159.5082168093452
 30
0.0
 10
248.3630614036307
 20
-159.6800137665576
 30
0.0
 10
248.3630614036307
 20
-159.6800137665576
 30
0.0
 10
248.3630614036307
 20
-159.6800137665576
 30
0.0
 10
247.951880506384
 20
-156.4953987986586
 30
0.0
 10
250.4629702163938
 20
-153.4958628457881
 30
0.0
 10
251.0449492493385
 20
-152.8006664745089
 30
0.0
 10
252.2729687864792
 20
-151.5181894863126
 30
0.0
 10
252.9867020644133
 20
-151.0639479527791
 30
0.0
 10
256.3476694840053
 20
-149.0289934462081
 30
0.0
 10
263.9371008463431
 20
-148.5219373363976
 30
0.0
 10
266.7588521467101
 20
-149.5009504641763
 30
0.0
 10
263.8113592453669
 20
-143.9939922646532
 30
0.0
 10
263.9316294152044
 20
-139.7858712344423
 30
0.0
 10
263.9316294152044
 20
-131.5182112777259
 30
0.0
 10
263.9316294152044
 20
-109.5810920632062
 30
0.0
 10
279.2921635137874
 20
-91.08672299627448
 30
0.0
 10
292.162415143464
 20
-91.21678072760138
 30
0.0
 10
305.2050874486062
 20
-91.34855992132811
 30
0.0
 10
320.3931509742575
 20
-109.8773582361485
 30
0.0
 10
320.3931509742575
 20
-131.814477450665
 30
0.0
 10
320.3931509742575
 20
-139.8233442274333
 30
0.0
 10
320.076140294816
 20
-144.1246737142425
 30
0.0
 10
317.4772061052226
 20
-149.5009504641763
 30
0.0
 10
319.9209092945605
 20
-148.6757462590229
 30
0.0
 10
328.9274103331552
 20
-149.4755231106728
 30
0.0
 10
331.4384750944453
 20
-152.4750590635362
 30
0.0
  0
SPLINE
  5
7D
330
70
100
AcDbEntity
  8
Layer 2
100
AcDbSpline
210
0.0
220
0.0
230
1.0
 70
     9
 71
     3
 72
   287
 73
   283
 74
     0
 42
0.0000000001
 43
0.0000000001
 40
0.0
 40
0.0
 40
0.0
 40
0.0
 40
1.0
 40
1.0
 40
1.0
 40
2.0
 40
2.0
 40
2.0
 40
3.0
 40
3.0
 40
3.0
 40
4.0
 40
4.0
 40
4.0
 40
5.0
 40
5.0
 40
5.0
 40
6.0
 40
6.0
 40
6.0
 40
7.0
 40
7.0
 40
7.0
 40
8.0
 40
8.0
 40
8.0
 40
9.0
 40
9.0
 40
9.0
 40
10.0
 40
10.0
 40
10.0
 40
11.0
 40
11.0
 40
11.0
 40
12.0
 40
12.0
 40
12.0
 40
13.0
 40
13.0
 40
13.0
 40
14.0
 40
14.0
 40
14.0
 40
15.0
 40
15.0
 40
15.0
 40
16.0
 40
16.0
 40
16.0
 40
17.0
 40
17.0
 40
17.0
 40
18.0
 40
18.0
 40
18.0
 40
19.0
 40
19.0
 40
19.0
 40
20.0
 40
20.0
 40
20.0
 40
21.0
 40
21.0
 40
21.0
 40
22.0
 40
22.0
 40
22.0
 40
23.0
 40
23.0
 40
23.0
 40
24.0
 40
24.0
 40
24.0
 40
25.0
 40
25.0
 40
25.0
 40
26.0
 40
26.0
 40
26.0
 40
27.0
 40
27.0
 40
27.0
 40
28.0
 40
28.0
 40
28.0
 40
29.0
 40
29.0
 40
29.0
 40
30.0
 40
30.0
 40
30.0
 40
31.0
 40
31.0
 40
31.0
 40
32.0
 40
32.0
 40
32.0
 40
33.0
 40
33.0
 40
33.0
 40
34.0
 40
34.0
 40
34.0
 40
35.0
 40
35.0
 40
35.0
 40
36.0
 40
36.0
 40
36.0
 40
37.0
 40
37.0
 40
37.0
 40
38.0
 40
38.0
 40
38.0
 40
39.0
 40
39.0
 40
39.0
 40
40.0
 40
40.0
 40
40.0
 40
41.0
 40
41.0
 40
41.0
 40
42.0
 40
42.0
 40
42.0
 40
43.0
 40
43.0
 40
43.0
 40
44.0
 40
44.0
 40
44.0
 40
45.0
 40
45.0
 40
45.0
 40
46.0
 40
46.0
 40
46.0
 40
47.0
 40
47.0
 40
47.0
 40
48.0
 40
48.0
 40
48.0
 40
49.0
 40
49.0
 40
49.0
 40
50.0
 40
50.0
 40
50.0
 40
51.0
 40
51.0
 40
51.0
 40
52.0
 40
52.0
 40
52.0
 40
53.0
 40
53.0
 40
53.0
 40
54.0
 40
54.0
 40
54.0
 40
55.0
 40
55.0
 40
55.0
 40
56.0
 40
56.0
 40
56.0
 40
57.0
 40
57.0
 40
57.0
 40
58.0
 40
58.0
 40
58.0
 40
59.0
 40
59.0
 40
59.0
 40
60.0
 40
60.0
 40
60.0
 40
61.0
 40
61.0
 40
61.0
 40
62.0
 40
62.0
 40
62.0
 40
63.0
 40
63.0
 40
63.0
 40
64.0
 40
64.0
 40
64.0
 40
65.0
 40
65.0
 40
65.0
 40
66.0
 40
66.0
 40
66.0
 40
67.0
 40
67.0
 40
67.0
 40
68.0
 40
68.0
 40
68.0
 40
69.0
 40
69.0
 40
69.0
 40
70.0
 40
70.0
 40
70.0
 40
71.0
 40
71.0
 40
71.0
 40
72.0
 40
72.0
 40
72.0
 40
73.0
 40
73.0
 40
73.0
 40
74.0
 40
74.0
 40
74.0
 40
75.0
 40
75.0
 40
75.0
 40
76.0
 40
76.0
 40
76.0
 40
77.0
 40
77.0
 40
77.0
 40
78.0
 40
78.0
 40
78.0
 40
79.0
 40
79.0
 40
79.0
 40
80.0
 40
80.0
 40
80.0
 40
81.0
 40
81.0
 40
81.0
 40
82.0
 40
82.0
 40
82.0
 40
83.0
 40
83.0
 40
83.0
 40
84.0
 40
84.0
 40
84.0
 40
85.0
 40
85.0
 40
85.0
 40
86.0
 40
86.0
 40
86.0
 40
87.0
 40
87.0
 40
87.0
 40
88.0
 40
88.0
 40
88.0
 40
89.0
 40
89.0
 40
89.0
 40
90.0
 40
90.0
 40
90.0
 40
91.0
 40
91.0
 40
91.0
 40
92.0
 40
92.0
 40
92.0
 40
93.0
 40
93.0
 40
93.0
 40
94.0
 40
94.0
 40
94.0
 40
94.0
 10
330.4429865679995
 20
-124.2645442983266
 30
0.0
 10
330.3503908706613
 20
-121.8258664249443
 30
0.0
 10
330.2088213136904
 20
-119.3876020614673
 30
0.0
 10
330.0299172839461
 20
-116.952410461227
 30
0.0
 10
329.920498677604
 20
-115.437138132426
 30
0.0
 10
329.8314664775089
 20
-113.1362404623958
 30
0.0
 10
328.8117428005049
 20
-113.0520233518475
 30
0.0
 10
327.5750562407811
 20
-112.9489995529086
 30
0.0
 10
326.9997703528681
 20
-111.7902982193258
 30
0.0
 10
326.3443018306248
 20
-110.7381760888892
 30
0.0
 10
326.0831977099986
 20
-110.3226810070795
 30
0.0
 10
326.2999727403832
 20
-109.8670969890415
 30
0.0
 10
326.7438884437542
 20
-109.8571811680865
 30
0.0
 10
327.0234167423386
 20
-109.85156114701
 30
0.0
 10
327.3061953630081
 20
-109.8551689208072
 30
0.0
 10
327.5798556877325
 20
-109.9535705072517
 30
0.0
 10
328.4661399435508
 20
-110.2702222138435
 30
0.0
 10
329.0644076147158
 20
-111.0772248697019
 30
0.0
 10
329.6276014043789
 20
-111.9530569003719
 30
0.0
 10
329.8093357961666
 20
-112.2348332935621
 30
0.0
 10
330.0022670221239
 20
-112.1542216472947
 30
0.0
 10
330.0727329395357
 20
-111.8028210351989
 30
0.0
 10
329.9880518970376
 20
-110.2722502407756
 30
0.0
 10
329.8989534786441
 20
-109.8449227442563
 30
0.0
 10
329.8180832187297
 20
-108.3866248853929
 30
0.0
 10
329.8071389260346
 20
-108.2299193635947
 30
0.0
 10
329.8795198049854
 20
-107.764943042908
 30
0.0
 10
329.7677841374406
 20
-107.6841048562339
 30
0.0
 10
329.2371595252316
 20
-107.2945275501605
 30
0.0
 10
328.9601166745708
 20
-106.8586957752071
 30
0.0
 10
328.3158472497523
 20
-106.7631877946343
 30
0.0
 10
327.0652258565825
 20
-106.5768441793023
 30
0.0
 10
326.3379395578416
 20
-105.4774912279973
 30
0.0
 10
325.5934109543511
 20
-104.4163202016612
 30
0.0
 10
325.4062356869377
 20
-104.151450660698
 30
0.0
 10
325.3651273427024
 20
-103.7851529742083
 30
0.0
 10
325.3863605997775
 20
-103.4440522246261
 30
0.0
 10
325.4234419687496
 20
-102.9639042829654
 30
0.0
 10
325.5931094631068
 20
-102.7603433588907
 30
0.0
 10
326.0022028662718
 20
-102.7967065051913
 30
0.0
 10
326.63503573064
 20
-102.8588976397463
 30
0.0
 10
327.2772461826314
 20
-102.9564087496993
 30
0.0
 10
327.7898358042091
 20
-103.483041486464
 30
0.0
 10
328.3134789544139
 20
-104.0207561226028
 30
0.0
 10
328.831265383771
 20
-104.5746963826731
 30
0.0
 10
329.2705259284303
 20
-105.2432765301695
 30
0.0
 10
329.4365566749158
 20
-105.4875885357977
 30
0.0
 10
329.3085039498557
 20
-105.4144271035304
 30
0.0
 10
329.6123891990228
 20
-105.5494398597374
 30
0.0
 10
329.5423134568901
 20
-104.42331937494
 30
0.0
 10
329.3265652739944
 20
-103.5578164405654
 30
0.0
 10
329.2612319319334
 20
-102.5122114793139
 30
0.0
 10
329.155396454967
 20
-101.0690453559909
 30
0.0
 10
328.9607196044894
 20
-100.3534186901032
 30
0.0
 10
327.9720395699581
 20
-99.76434537588374
 30
0.0
 10
327.446450605445
 20
-99.45300965826682
 30
0.0
 10
326.8970204315348
 20
-99.23676972301281
 30
0.0
 10
326.3558301177708
 20
-98.99339077477049
 30
0.0
 10
325.7869614825375
 20
-98.73767755696666
 30
0.0
 10
325.2397312206111
 20
-98.42242438479404
 30
0.0
 10
324.7644021967169
 20
-97.9385376780667
 30
0.0
 10
324.4544430090796
 20
-97.62345454997374
 30
0.0
 10
324.1747240985928
 20
-97.26289345486756
 30
0.0
 10
324.2437230575675
 20
-96.69252892147888
 30
0.0
 10
324.3171207799044
 20
-96.07393031151998
 30
0.0
 10
324.7261381173891
 20
-95.88077908921794
 30
0.0
 10
325.0982083581176
 20
-95.64801717263781
 30
0.0
 10
325.2853231570536
 20
-95.53065795724172
 30
0.0
 10
325.4737594334944
 20
-95.56944073300707
 30
0.0
 10
325.6667667079511
 20
-95.59805151979402
 30
0.0
 10
326.3532371706594
 20
-95.69695667458656
 30
0.0
 10
326.8612534747538
 20
-96.21484553880495
 30
0.0
 10
327.3560850193188
 20
-96.77209884084234
 30
0.0
 10
327.9592485402559
 20
-97.45601875949372
 30
0.0
 10
328.3408787150624
 20
-97.50717735551999
 30
0.0
 10
328.9283931131605
 20
-98.43719692552129
 30
0.0
 10
328.7638678645027
 20
-97.39391574921759
 30
0.0
 10
328.7602351469514
 20
-97.27257756933338
 30
0.0
 10
328.7055573586844
 20
-96.49270065996969
 30
0.0
 10
328.6507932330323
 20
-95.75735543269123
 30
0.0
 10
328.2108440893706
 20
-94.46265072660153
 30
0.0
 10
328.1679003932238
 20
-94.38648336652692
 30
0.0
 10
327.5017519489889
 20
-93.21847577362353
 30
0.0
 10
326.6802839123203
 20
-92.32594780417915
 30
0.0
 10
325.5500547075226
 20
-92.02106723034619
 30
0.0
 10
325.2665701784569
 20
-91.94467582840742
 30
0.0
 10
324.9912678039251
 20
-91.81945813792726
 30
0.0
 10
324.7134509869295
 20
-91.71174354591148
 30
0.0
 10
324.1130606635437
 20
-91.48331029743017
 30
0.0
 10
323.6315090859944
 20
-91.00428300184562
 30
0.0
 10
323.1802228899375
 20
-90.49306025370661
 30
0.0
 10
322.7084460593943
 20
-89.96762414149145
 30
0.0
 10
322.8654858204876
 20
-89.26147266817546
 30
0.0
 10
323.4768950590612
 20
-89.04045775671731
 30
0.0
 10
323.7316513462138
 20
-88.94877356953537
 30
0.0
 10
323.9985928787001
 20
-88.91329909573121
 30
0.0
 10
324.2703558479671
 20
-88.95593623016862
 30
0.0
 10
324.8954403368708
 20
-89.05412829087421
 30
0.0
 10
325.4393782350288
 20
-89.38566910441259
 30
0.0
 10
325.9004807142376
 20
-89.93967638031119
 30
0.0
 10
326.68289422116
 20
-90.88923972695955
 30
0.0
 10
327.3952239748583
 20
-91.93072997198305
 30
0.0
 10
328.0237890922079
 20
-93.0568179169755
 30
0.0
 10
328.1699052790839
 20
-93.31753924699617
 30
0.0
 10
328.2511502717322
 20
-92.21644418274308
 30
0.0
 10
328.1229645082226
 20
-91.58645513915248
 30
0.0
 10
327.9812194296356
 20
-90.87371725784786
 30
0.0
 10
328.0857616730243
 20
-90.35906027109117
 30
0.0
 10
327.5751252007958
 20
-89.80450472010915
 30
0.0
 10
326.8215206218835
 20
-88.98257069028124
 30
0.0
 10
326.0449336861431
 20
-88.23962659084159
 30
0.0
 10
325.1650389083462
 20
-87.6738871906889
 30
0.0
 10
324.6087556825541
 20
-87.30757026721262
 30
0.0
 10
324.1295704047796
 20
-86.82817743288234
 30
0.0
 10
323.7543025597688
 20
-86.19694031636639
 30
0.0
 10
323.5671054544291
 20
-85.88337031847657
 30
0.0
 10
323.5083191457055
 20
-85.23453817761648
 30
0.0
 10
323.6556814759384
 20
-84.92876073460402
 30
0.0
 10
323.8284041902452
 20
-84.56929025820079
 30
0.0
 10
324.1063398481029
 20
-84.66912802961275
 30
0.0
 10
324.3770554133051
 20
-84.70593993366085
 30
0.0
 10
324.9904993556162
 20
-84.7920148102642
 30
0.0
 10
325.5135865851307
 20
-85.14526570076037
 30
0.0
 10
325.9378917768534
 20
-85.72477430120819
 30
0.0
 10
326.2532029552856
 20
-86.14573336996121
 30
0.0
 10
326.5318094071676
 20
-86.62878499030671
 30
0.0
 10
327.0339185035351
 20
-87.06012604363328
 30
0.0
 10
326.750994802419
 20
-85.87598530315643
 30
0.0
 10
326.3138627271177
 20
-84.98391776608007
 30
0.0
 10
325.7519188421503
 20
-84.20867044583543
 30
0.0
 10
325.4994032650178
 20
-83.84615899399362
 30
0.0
 10
325.2452511915592
 20
-83.48099612871383
 30
0.0
 10
325.0661834839664
 20
-83.07653570994473
 30
0.0
 10
324.7114023198005
 20
-82.31767974589256
 30
0.0
 10
324.5001555723186
 20
-81.55732219739345
 30
0.0
 10
324.8103790408273
 20
-80.74926442183153
 30
0.0
 10
325.1529397012889
 20
-79.86250326682256
 30
0.0
 10
325.7657583393736
 20
-79.79638985050652
 30
0.0
 10
326.3405423856679
 20
-80.71256585809027
 30
0.0
 10
326.6544824680186
 20
-81.250068375435
 30
0.0
 10
326.8824924806893
 20
-81.84437726144727
 30
0.0
 10
327.000711646249
 20
-82.48117853907256
 30
0.0
 10
327.2335784439647
 20
-83.58975376809841
 30
0.0
 10
327.4617773709082
 20
-84.6961613916965
 30
0.0
 10
327.5777613647313
 20
-85.97228170604276
 30
0.0
 10
327.7606186480753
 20
-85.56043745142043
 30
0.0
 10
327.7169287973048
 20
-85.26283417764791
 30
0.0
 10
327.7599288734854
 20
-84.99206345493048
 30
0.0
 10
327.9316506304122
 20
-83.89249907938653
 30
0.0
 10
327.9898848617869
 20
-82.74569571663812
 30
0.0
 10
328.5836638427224
 20
-81.86408636928119
 30
0.0
 10
328.7904705775224
 20
-81.56123220668382
 30
0.0
 10
328.9941795590672
 20
-81.20605267780062
 30
0.0
 10
329.3732942142711
 20
-81.39796504820928
 30
0.0
 10
329.7354886892883
 20
-81.5826914140713
 30
0.0
 10
329.7314664599503
 20
-82.05833040751628
 30
0.0
 10
329.7348447394895
 20
-82.43242889980271
 30
0.0
 10
329.7435557550009
 20
-83.21353606454593
 30
0.0
 10
329.7109598977952
 20
-83.9832106383484
 30
0.0
 10
329.5838596045207
 20
-84.73236937618235
 30
0.0
 10
329.3875733682301
 20
-85.95296081555089
 30
0.0
 10
329.0016096240009
 20
-87.06530666746953
 30
0.0
 10
328.5491658997722
 20
-88.14034427829914
 30
0.0
 10
328.3974798086135
 20
-88.498661706905
 30
0.0
 10
328.2352639318302
 20
-88.8682890475734
 30
0.0
 10
328.3069476964812
 20
-89.29744476052205
 30
0.0
 10
328.4637304482928
 20
-90.18172426666174
 30
0.0
 10
328.615684544594
 20
-91.06897832381761
 30
0.0
 10
328.9166413728544
 20
-91.90281382742
 30
0.0
 10
328.9762631565328
 20
-91.86692213785217
 30
0.0
 10
329.0092390454461
 20
-91.86081863718953
 30
0.0
 10
329.0146514194802
 20
-91.84121387068143
 30
0.0
 10
329.045547150525
 20
-91.72507932545698
 30
0.0
 10
329.0850699875504
 20
-91.60803918165365
 30
0.0
 10
329.093727537917
 20
-91.48703883917457
 30
0.0
 10
329.2137956636033
 20
-89.87570033394444
 30
0.0
 10
329.7595120314711
 20
-88.53029512164013
 30
0.0
 10
330.4629883001005
 20
-87.26306015296543
 30
0.0
 10
330.8064908371827
 20
-86.64645509917368
 30
0.0
 10
331.0716894624008
 20
-86.65815991526356
 30
0.0
 10
331.4096352645497
 20
-87.33442367773998
 30
0.0
 10
331.933280639701
 20
-88.38805534685119
 30
0.0
 10
331.8423689114871
 20
-89.46181121760758
 30
0.0
 10
331.428371286003
 20
-90.46391096489497
 30
0.0
 10
331.0036564507468
 20
-91.50551424416985
 30
0.0
 10
330.4362390518191
 20
-92.44039792102269
 30
0.0
 10
329.696459997688
 20
-93.12095193647104
 30
0.0
 10
329.2770791976014
 20
-93.50539431207513
 30
0.0
 10
329.1610971108321
 20
-93.99561067393243
 30
0.0
 10
329.2177979375019
 20
-94.60058053572726
 30
0.0
 10
329.2177979375019
 20
-94.60058053572726
 30
0.0
 10
329.4315522278438
 20
-96.67881556411188
 30
0.0
 10
329.4315522278438
 20
-96.67881556411188
 30
0.0
 10
329.4763971524722
 20
-97.10112162374208
 30
0.0
 10
329.4581191248603
 20
-97.54826666108032
 30
0.0
 10
329.6494260266828
 20
-98.01979208479698
 30
0.0
 10
329.8636973792639
 20
-97.72891589781595
 30
0.0
 10
329.951094240871
 20
-97.4381558086557
 30
0.0
 10
330.0531521782298
 20
-97.16036639893921
 30
0.0
 10
330.509067947619
 20
-95.92885010274784
 30
0.0
 10
331.0781747126551
 20
-94.84947316419248
 30
0.0
 10
332.0312051410756
 20
-94.18566674998947
 30
0.0
 10
332.7158265584955
 20
-93.70778859022207
 30
0.0
 10
333.1600539845405
 20
-93.99546776237015
 30
0.0
 10
333.2306999533467
 20
-95.0252961177947
 30
0.0
 10
333.2741129413739
 20
-95.6964598494145
 30
0.0
 10
333.1601480804725
 20
-96.31293864537134
 30
0.0
 10
332.7923995448625
 20
-96.80516204201364
 30
0.0
 10
332.1063651713999
 20
-97.71705802132835
 30
0.0
 10
331.4260408787756
 20
-98.63419873002692
 30
0.0
 10
330.6500763495471
 20
-99.41278044906134
 30
0.0
 10
330.2524714494743
 20
-99.81221607002206
 30
0.0
 10
329.8359620234839
 20
-100.2565666335403
 30
0.0
 10
329.8506930920221
 20
-100.9380549071124
 30
0.0
 10
329.8812134117157
 20
-102.1056022817487
 30
0.0
 10
330.052947303763
 20
-103.262455295592
 30
0.0
 10
330.156342261595
 20
-104.5694304596919
 30
0.0
 10
330.5089464044236
 20
-104.2012051498134
 30
0.0
 10
330.5261877106933
 20
-103.856481222199
 30
0.0
 10
330.5907530199269
 20
-103.5476140138514
 30
0.0
 10
330.9443004178828
 20
-102.0493327646941
 30
0.0
 10
331.4223224105794
 20
-100.7051052637685
 30
0.0
 10
332.3895972184061
 20
-99.79842136167835
 30
0.0
 10
332.6399339648775
 20
-99.55647839688879
 30
0.0
 10
332.8787208311322
 20
-99.35392686881815
 30
0.0
 10
333.1806598893348
 20
-99.5736100238358
 30
0.0
 10
333.4892747987313
 20
-99.80539300071205
 30
0.0
 10
333.4772354942415
 20
-100.18017255807
 30
0.0
 10
333.4320894225815
 20
-100.6014785808124
 30
0.0
 10
333.2908925529223
 20
-102.050253455025
 30
0.0
 10
332.8331128461234
 20
-103.2489931282435
 30
0.0
 10
332.0647012987724
 20
-104.1924375177281
 30
0.0
 10
331.6373283824804
 20
-104.7191785507147
 30
0.0
 10
331.2723389789972
 20
-105.3145179562972
 30
0.0
 10
330.8545082896005
 20
-105.8540186918302
 30
0.0
 10
330.4706005412437
 20
-106.3525277703871
 30
0.0
 10
330.3585885025887
 20
-106.879000396428
 30
0.0
 10
330.4237248790176
 20
-107.5462182042909
 30
0.0
 10
330.5404932608781
 20
-108.6465512054648
 30
0.0
 10
330.5895328371528
 20
-109.7669912218414
 30
0.0
 10
330.658012230078
 20
-110.8798622507399
 30
0.0
 10
330.6851795840557
 20
-111.2816343112598
 30
0.0
 10
330.7117257672043
 20
-111.6837585825564
 30
0.0
 10
330.7449405828001
 20
-112.1790688349812
 30
0.0
 10
331.0314669205841
 20
-111.8713467347626
 30
0.0
 10
331.0774440952279
 20
-111.5271535567615
 30
0.0
 10
331.1562246961367
 20
-111.2359617628332
 30
0.0
 10
331.5128907548477
 20
-109.9195818622172
 30
0.0
 10
332.1062867350267
 20
-108.7875703682575
 30
0.0
 10
332.745504464962
 20
-107.6784233867665
 30
0.0
 10
332.9508690364006
 20
-107.3218466113974
 30
0.0
 10
333.1974564626323
 20
-107.0401499705899
 30
0.0
 10
333.4695304970782
 20
-106.7874643156858
 30
0.0
 10
333.7003050744589
 20
-106.5732601382061
 30
0.0
 10
333.914885928057
 20
-106.5328129824031
 30
0.0
 10
334.141396885887
 20
-106.6912941911793
 30
0.0
 10
334.3893010713945
 20
-106.863950282832
 30
0.0
 10
334.3758472883605
 20
-107.1731220737586
 30
0.0
 10
334.3631114511157
 20
-107.5225313487095
 30
0.0
 10
334.3084550744905
 20
-108.8872348464365
 30
0.0
 10
333.8780136135794
 20
-110.0368913738764
 30
0.0
 10
333.1434102502385
 20
-111.0201362666671
 30
0.0
 10
333.1434102502385
 20
-111.0201362666671
 30
0.0
 10
332.0547105854684
 20
-112.4488607766112
 30
0.0
 10
332.0547105854684
 20
-112.4488607766112
 30
0.0
 10
331.3250809006348
 20
-113.4050363505368
 30
0.0
 10
330.8963190878931
 20
-114.4616616219184
 30
0.0
 10
331.0391163442485
 20
-115.8053910842216
 30
0.0
 10
331.155822528931
 20
-116.897580150394
 30
0.0
 10
331.1785809813191
 20
-118.0214665372967
 30
0.0
 10
331.2809485419097
 20
-119.1174003502126
 30
0.0
 10
331.4864295216764
 20
-121.2404533340847
 30
0.0
 10
331.3559797900517
 20
-123.4615489195935
 30
0.0
 10
331.8261212125818
 20
-125.454836584016
 30
0.0
 10
331.8738150674223
 20
-125.6563083988307
 30
0.0
 10
331.8717874072784
 20
-125.9136756588882
 30
0.0
 10
331.6504610414116
 20
-125.9918402538696
 30
0.0
 10
331.3715629139571
 20
-126.0903133186048
 30
0.0
 10
330.7037957247954
 20
-126.8376522065633
 30
0.0
 10
330.6711004071179
 20
-126.5889024977715
 30
0.0
 10
330.5620156745959
 20
-125.8304681101957
 30
0.0
 10
330.4790680553358
 20
-125.0507649870922
 30
0.0
 10
330.4429865679995
 20
-124.2645442983266
 30
0.0
  0
SPLINE
  5
7E
330
70
100
AcDbEntity
  8
Layer 2
100
AcDbSpline
210
0.0
220
0.0
230
1.0
 70
     9
 71
     3
 72
    17
 73
    13
 74
     0
 42
0.0000000001
 43
0.0000000001
 40
0.0
 40
0.0
 40
0.0
 40
0.0
 40
1.0
 40
1.0
 40
1.0
 40
2.0
 40
2.0
 40
2.0
 40
3.0
 40
3.0
 40
3.0
 40
4.0
 40
4.0
 40
4.0
 40
4.0
 10
247.8936374926264
 20
-120.7493912056708
 30
0.0
 10
248.5202498041637
 20
-120.3644572450562
 30
0.0
 10
249.3401399297501
 20
-120.5605293169008
 30
0.0
 10
249.7249491467163
 20
-121.1869420386005
 30
0.0
 10
250.1098581585962
 20
-121.8135294014114
 30
0.0
 10
249.9140106253276
 20
-122.6332947833465
 30
0.0
 10
249.2873983137897
 20
-123.0182287439627
 30
0.0
 10
248.6608109509708
 20
-123.4031377558471
 30
0.0
 10
247.8410455690358
 20
-123.2072652738458
 30
0.0
 10
247.4561365571558
 20
-122.5806529623037
 30
0.0
 10
247.0713273401974
 20
-121.9542901380644
 30
0.0
 10
247.2670501298107
 20
-121.1343002175539
 30
0.0
 10
247.8936374926264
 20
-120.7493912056708
 30
0.0
  0
SPLINE
  5
7F
330
70
100
AcDbEntity
  8
Layer 2
100
AcDbSpline
210
0.0
220
0.0
230
1.0
 70
     9
 71
     3
 72
    17
 73
    13
 74
     0
 42
0.0000000001
 43
0.0000000001
 40
0.0
 40
0.0
 40
0.0
 40
0.0
 40
1.0
 40
1.0
 40
1.0
 40
2.0
 40
2.0
 40
2.0
 40
3.0
 40
3.0
 40
3.0
 40
4.0
 40
4.0
 40
4.0
 40
4.0
 10
249.6810892787581
 20
-115.6417623841781
 30
0.0
 10
250.3839698589881
 20
-115.209974707961
 30
0.0
 10
251.3039043932876
 20
-115.4295983812573
 30
0.0
 10
251.7358417618875
 20
-116.1327035000611
 30
0.0
 10
252.1676294381003
 20
-116.8355840802933
 30
0.0
 10
251.9478061749658
 20
-117.7556433582474
 30
0.0
 10
251.2449006460073
 20
-118.1874310344628
 30
0.0
 10
250.542020065776
 20
-118.6192187106808
 30
0.0
 10
249.6219607878194
 20
-118.3993954475412
 30
0.0
 10
249.1901481628683
 20
-117.6965148673106
 30
0.0
 10
248.7582357430066
 20
-116.9934097485062
 30
0.0
 10
248.9782086985282
 20
-116.0735251116668
 30
0.0
 10
249.6810892787581
 20
-115.6417623841781
 30
0.0
  0
SPLINE
  5
80
330
70
100
AcDbEntity
  8
Layer 2
100
AcDbSpline
210
0.0
220
0.0
230
1.0
 70
     9
 71
     3
 72
    17
 73
    13
 74
     0
 42
0.0000000001
 43
0.0000000001
 40
0.0
 40
0.0
 40
0.0
 40
0.0
 40
1.0
 40
1.0
 40
1.0
 40
2.0
 40
2.0
 40
2.0
 40
3.0
 40
3.0
 40
3.0
 40
4.0
 40
4.0
 40
4.0
 40
4.0
 10
252.0283656252752
 20
-110.8427992546111
 30
0.0
 10
252.7568186541175
 20
-110.3952938782751
 30
0.0
 10
253.710134589627
 20
-110.6232753762353
 30
0.0
 10
254.1576150172466
 20
-111.3517284050828
 30
0.0
 10
254.6049707011949
 20
-112.0799818440812
 30
0.0
 10
254.3773883829162
 20
-113.0333476770553
 30
0.0
 10
253.6489353540745
 20
-113.4808530533939
 30
0.0
 10
252.9204573765048
 20
-113.9283334810035
 30
0.0
 10
251.9671913384493
 20
-113.700376931769
 30
0.0
 10
251.5198107057628
 20
-112.9721234927709
 30
0.0
 10
251.0723302781541
 20
-112.2436704639257
 30
0.0
 10
251.2999125964341
 20
-111.2902796822207
 30
0.0
 10
252.0283656252752
 20
-110.8427992546111
 30
0.0
  0
SPLINE
  5
81
330
70
100
AcDbEntity
  8
Layer 2
100
AcDbSpline
210
0.0
220
0.0
230
1.0
 70
     9
 71
     3
 72
    17
 73
    13
 74
     0
 42
0.0000000001
 43
0.0000000001
 40
0.0
 40
0.0
 40
0.0
 40
0.0
 40
1.0
 40
1.0
 40
1.0
 40
2.0
 40
2.0
 40
2.0
 40
3.0
 40
3.0
 40
3.0
 40
4.0
 40
4.0
 40
4.0
 40
4.0
 10
254.4981402378227
 20
-106.1170107511708
 30
0.0
 10
255.2020936134624
 20
-105.684574407965
 30
0.0
 10
256.1234252766628
 20
-105.9045224147547
 30
0.0
 10
256.5560113122586
 20
-106.6086753802358
 30
0.0
 10
256.988422706729
 20
-107.3126038071402
 30
0.0
 10
256.7682501613632
 20
-108.2340352652653
 30
0.0
 10
256.0642967857337
 20
-108.6664716084692
 30
0.0
 10
255.360368358822
 20
-109.0989079516776
 30
0.0
 10
254.4389618494274
 20
-108.8787603550442
 30
0.0
 10
254.0065255062194
 20
-108.1748069794051
 30
0.0
 10
253.5739644193625
 20
-107.4706540139275
 30
0.0
 10
253.7942118109206
 20
-106.5494470943763
 30
0.0
 10
254.4981402378227
 20
-106.1170107511708
 30
0.0
  0
SPLINE
  5
82
330
70
100
AcDbEntity
  8
Layer 2
100
AcDbSpline
210
0.0
220
0.0
230
1.0
 70
     9
 71
     3
 72
    17
 73
    13
 74
     0
 42
0.0000000001
 43
0.0000000001
 40
0.0
 40
0.0
 40
0.0
 40
0.0
 40
1.0
 40
1.0
 40
1.0
 40
2.0
 40
2.0
 40
2.0
 40
3.0
 40
3.0
 40
3.0
 40
4.0
 40
4.0
 40
4.0
 40
4.0
 10
257.4136239181379
 20
-101.904816810773
 30
0.0
 10
258.0417082047721
 20
-101.5189846958662
 30
0.0
 10
258.8638686648122
 20
-101.7154060499361
 30
0.0
 10
259.2496758309971
 20
-102.3434653878369
 30
0.0
 10
259.6355328946265
 20
-102.9715496744703
 30
0.0
 10
259.4389368994521
 20
-103.7935105446789
 30
0.0
 10
258.8108526128185
 20
-104.1793177108526
 30
0.0
 10
258.1827932749122
 20
-104.5651498257604
 30
0.0
 10
257.3609571483633
 20
-104.3688282666164
 30
0.0
 10
256.9751250334517
 20
-103.7407190312497
 30
0.0
 10
256.5893178672776
 20
-103.1126596933492
 30
0.0
 10
256.7855645802322
 20
-102.2906239769522
 30
0.0
 10
257.4136239181379
 20
-101.904816810773
 30
0.0
  0
SPLINE
  5
83
330
70
100
AcDbEntity
  8
Layer 2
100
AcDbSpline
210
0.0
220
0.0
230
1.0
 70
     9
 71
     3
 72
    17
 73
    13
 74
     0
 42
0.0000000001
 43
0.0000000001
 40
0.0
 40
0.0
 40
0.0
 40
0.0
 40
1.0
 40
1.0
 40
1.0
 40
2.0
 40
2.0
 40
2.0
 40
3.0
 40
3.0
 40
3.0
 40
4.0
 40
4.0
 40
4.0
 40
4.0
 10
261.0659434006863
 20
-97.69873530931157
 30
0.0
 10
261.7898058631424
 20
-97.56915160386
 30
0.0
 10
262.4815094121744
 20
-98.05103633062421
 30
0.0
 10
262.6110681688929
 20
-98.77467425451254
 30
0.0
 10
262.740626925617
 20
-99.49853671697022
 30
0.0
 10
262.2589916861589
 20
-100.1902153172717
 30
0.0
 10
261.5351042749652
 20
-100.3197990227235
 30
0.0
 10
260.8112168637779
 20
-100.4493827281764
 30
0.0
 10
260.1195881609382
 20
-99.96772253998669
 30
0.0
 10
259.990004455486
 20
-99.24383512879558
 30
0.0
 10
259.8604706474904
 20
-98.5201972049127
 30
0.0
 10
260.3420559894894
 20
-97.8282940660361
 30
0.0
 10
261.0659434006863
 20
-97.69873530931157
 30
0.0
  0
SPLINE
  5
84
330
70
100
AcDbEntity
  8
Layer 2
100
AcDbSpline
210
0.0
220
0.0
230
1.0
 70
     9
 71
     3
 72
    17
 73
    13
 74
     0
 42
0.0000000001
 43
0.0000000001
 40
0.0
 40
0.0
 40
0.0
 40
0.0
 40
1.0
 40
1.0
 40
1.0
 40
2.0
 40
2.0
 40
2.0
 40
3.0
 40
3.0
 40
3.0
 40
4.0
 40
4.0
 40
4.0
 40
4.0
 10
264.8574019524111
 20
-93.42940877640947
 30
0.0
 10
265.6694082792006
 20
-93.28405747337402
 30
0.0
 10
266.4456880241342
 20
-93.82439707535313
 30
0.0
 10
266.5910642759038
 20
-94.6366528894512
 30
0.0
 10
266.7364405276617
 20
-95.44865921624811
 30
0.0
 10
266.195851438383
 20
-96.22496390990717
 30
0.0
 10
265.3838451115839
 20
-96.37031521294357
 30
0.0
 10
264.5718138360574
 20
-96.51566651597933
 30
0.0
 10
263.7955340911328
 20
-95.97507742669519
 30
0.0
 10
263.6501827880918
 20
-95.16307109989702
 30
0.0
 10
263.504781587595
 20
-94.35081528579862
 30
0.0
 10
264.045395625612
 20
-93.57476007944523
 30
0.0
 10
264.8574019524111
 20
-93.42940877640947
 30
0.0
  0
SPLINE
  5
85
330
70
100
AcDbEntity
  8
Layer 2
100
AcDbSpline
210
0.0
220
0.0
230
1.0
 70
     9
 71
     3
 72
    17
 73
    13
 74
     0
 42
0.0000000001
 43
0.0000000001
 40
0.0
 40
0.0
 40
0.0
 40
0.0
 40
1.0
 40
1.0
 40
1.0
 40
2.0
 40
2.0
 40
2.0
 40
3.0
 40
3.0
 40
3.0
 40
4.0
 40
4.0
 40
4.0
 40
4.0
 10
269.3498699295937
 20
-89.68647550521909
 30
0.0
 10
270.1914654505847
 20
-89.53583507134466
 30
0.0
 10
270.9957127222377
 20
-90.09613365760989
 30
0.0
 10
271.1463531561128
 20
-90.93765433241314
 30
0.0
 10
271.2969436925223
 20
-91.77897541737182
 30
0.0
 10
270.7369694397485
 20
-92.58344722760185
 30
0.0
 10
269.8953988674849
 20
-92.73408766147115
 30
0.0
 10
269.0538781926886
 20
-92.88472809534525
 30
0.0
 10
268.2496059722961
 20
-92.324454457808
 30
0.0
 10
268.0990154358879
 20
-91.48313337284868
 30
0.0
 10
267.9483750020135
 20
-90.64161269804605
 30
0.0
 10
268.5083492547853
 20
-89.8371159390887
 30
0.0
 10
269.3498699295937
 20
-89.68647550521909
 30
0.0
  0
SPLINE
  5
86
330
70
100
AcDbEntity
  8
Layer 2
100
AcDbSpline
210
0.0
220
0.0
230
1.0
 70
     9
 71
     3
 72
    17
 73
    13
 74
     0
 42
0.0000000001
 43
0.0000000001
 40
0.0
 40
0.0
 40
0.0
 40
0.0
 40
1.0
 40
1.0
 40
1.0
 40
2.0
 40
2.0
 40
2.0
 40
3.0
 40
3.0
 40
3.0
 40
4.0
 40
4.0
 40
4.0
 40
4.0
 10
274.0229667145286
 20
-86.64180729914347
 30
0.0
 10
274.8361955291066
 20
-86.49625640626439
 30
0.0
 10
275.6136229156314
 20
-87.03739436761678
 30
0.0
 10
275.7592237059718
 20
-87.85087266950622
 30
0.0
 10
275.9047995475843
 20
-88.66410148408711
 30
0.0
 10
275.3634120989222
 20
-89.44152887061475
 30
0.0
 10
274.550183284346
 20
-89.58710471222181
 30
0.0
 10
273.7369544697616
 20
-89.73268055382886
 30
0.0
 10
272.9595270832336
 20
-89.19129310517211
 30
0.0
 10
272.8139512416301
 20
-88.37806429059153
 30
0.0
 10
272.6683504512877
 20
-87.56461093743517
 30
0.0
 10
273.2097378999429
 20
-86.78740808948329
 30
0.0
 10
274.0229667145286
 20
-86.64180729914347
 30
0.0
  0
SPLINE
  5
87
330
70
100
AcDbEntity
  8
Layer 2
100
AcDbSpline
210
0.0
220
0.0
230
1.0
 70
     9
 71
     3
 72
    17
 73
    13
 74
     0
 42
0.0000000001
 43
0.0000000001
 40
0.0
 40
0.0
 40
0.0
 40
0.0
 40
1.0
 40
1.0
 40
1.0
 40
2.0
 40
2.0
 40
2.0
 40
3.0
 40
3.0
 40
3.0
 40
4.0
 40
4.0
 40
4.0
 40
4.0
 10
279.2099075498113
 20
-84.59513820464698
 30
0.0
 10
279.935491474664
 20
-84.46523016569752
 30
0.0
 10
280.6291909221304
 20
-84.94828748279298
 30
0.0
 10
280.7590490636083
 20
-85.67384645891385
 30
0.0
 10
280.8889321538249
 20
-86.39945533249516
 30
0.0
 10
280.4058498880015
 20
-87.09288034392344
 30
0.0
 10
279.6802659631558
 20
-87.2227634341398
 30
0.0
 10
278.9546820383044
 20
-87.35264652435649
 30
0.0
 10
278.2612570268765
 20
-86.86981374583742
 30
0.0
 10
278.1313739366591
 20
-86.14420487225613
 30
0.0
 10
278.0014908464418
 20
-85.41864589613494
 30
0.0
 10
278.4843236249567
 20
-84.72502129486334
 30
0.0
 10
279.2099075498113
 20
-84.59513820464698
 30
0.0
  0
SPLINE
  5
88
330
70
100
AcDbEntity
  8
Layer 2
100
AcDbSpline
210
0.0
220
0.0
230
1.0
 70
     9
 71
     3
 72
   170
 73
   166
 74
     0
 42
0.0000000001
 43
0.0000000001
 40
0.0
 40
0.0
 40
0.0
 40
0.0
 40
1.0
 40
1.0
 40
1.0
 40
2.0
 40
2.0
 40
2.0
 40
3.0
 40
3.0
 40
3.0
 40
4.0
 40
4.0
 40
4.0
 40
5.0
 40
5.0
 40
5.0
 40
6.0
 40
6.0
 40
6.0
 40
7.0
 40
7.0
 40
7.0
 40
8.0
 40
8.0
 40
8.0
 40
9.0
 40
9.0
 40
9.0
 40
10.0
 40
10.0
 40
10.0
 40
11.0
 40
11.0
 40
11.0
 40
12.0
 40
12.0
 40
12.0
 40
13.0
 40
13.0
 40
13.0
 40
14.0
 40
14.0
 40
14.0
 40
15.0
 40
15.0
 40
15.0
 40
16.0
 40
16.0
 40
16.0
 40
17.0
 40
17.0
 40
17.0
 40
18.0
 40
18.0
 40
18.0
 40
19.0
 40
19.0
 40
19.0
 40
20.0
 40
20.0
 40
20.0
 40
21.0
 40
21.0
 40
21.0
 40
22.0
 40
22.0
 40
22.0
 40
23.0
 40
23.0
 40
23.0
 40
24.0
 40
24.0
 40
24.0
 40
25.0
 40
25.0
 40
25.0
 40
26.0
 40
26.0
 40
26.0
 40
27.0
 40
27.0
 40
27.0
 40
28.0
 40
28.0
 40
28.0
 40
29.0
 40
29.0
 40
29.0
 40
30.0
 40
30.0
 40
30.0
 40
31.0
 40
31.0
 40
31.0
 40
32.0
 40
32.0
 40
32.0
 40
33.0
 40
33.0
 40
33.0
 40
34.0
 40
34.0
 40
34.0
 40
35.0
 40
35.0
 40
35.0
 40
36.0
 40
36.0
 40
36.0
 40
37.0
 40
37.0
 40
37.0
 40
38.0
 40
38.0
 40
38.0
 40
39.0
 40
39.0
 40
39.0
 40
40.0
 40
40.0
 40
40.0
 40
41.0
 40
41.0
 40
41.0
 40
42.0
 40
42.0
 40
42.0
 40
43.0
 40
43.0
 40
43.0
 40
44.0
 40
44.0
 40
44.0
 40
45.0
 40
45.0
 40
45.0
 40
46.0
 40
46.0
 40
46.0
 40
47.0
 40
47.0
 40
47.0
 40
48.0
 40
48.0
 40
48.0
 40
49.0
 40
49.0
 40
49.0
 40
50.0
 40
50.0
 40
50.0
 40
51.0
 40
51.0
 40
51.0
 40
52.0
 40
52.0
 40
52.0
 40
53.0
 40
53.0
 40
53.0
 40
54.0
 40
54.0
 40
54.0
 40
55.0
 40
55.0
 40
55.0
 40
55.0
 10
301.7222945888075
 20
-53.98045139371227
 30
0.0
 10
301.7208475624442
 20
-53.98863457726662
 30
0.0
 10
301.7190013563955
 20
-53.99674291463193
 30
0.0
 10
301.7166561757445
 20
-54.00465166215425
 30
0.0
 10
301.7140116103272
 20
-54.01390764111324
 30
0.0
 10
301.712539635241
 20
-54.01660210399332
 30
0.0
 10
301.7103940444266
 20
-54.02184133736835
 30
0.0
 10
301.7083981460012
 20
-54.02658159613332
 30
0.0
 10
301.7062525551926
 20
-54.03122205998065
 30
0.0
 10
301.7039572719956
 20
-54.0358625238251
 30
0.0
 10
301.6988178335414
 20
-54.0464158367645
 30
0.0
 10
301.6957740884381
 20
-54.0505074285436
 30
0.0
 10
301.6919070352328
 20
-54.0566448162108
 30
0.0
 10
301.6884142129881
 20
-54.06198384450508
 30
0.0
 10
301.68364900549
 20
-54.06926887376854
 30
0.0
 10
301.680779901501
 20
-54.07253715744417
 30
0.0
 10
301.6673075871093
 20
-54.0898765250405
 30
0.0
 10
301.6554319914615
 20
-54.10212635164182
 30
0.0
 10
301.6445792937572
 20
-54.11262976712015
 30
0.0
 10
301.6335020574828
 20
-54.12340761863501
 30
0.0
 10
301.6233728729583
 20
-54.13201493060331
 30
0.0
 10
301.6130939960506
 20
-54.14087172988113
 30
0.0
 10
301.5930102681204
 20
-54.15748758429582
 30
0.0
 10
301.5736251046357
 20
-54.17210754028251
 30
0.0
 10
301.5544145822589
 20
-54.18592913689787
 30
0.0
 10
301.4780465186549
 20
-54.24029242033691
 30
0.0
 10
301.4032003275925
 20
-54.28492569893617
 30
0.0
 10
301.3274310335079
 20
-54.32848618213462
 30
0.0
 10
301.1760670864582
 20
-54.41450940439125
 30
0.0
 10
301.0229317795515
 20
-54.49170077610315
 30
0.0
 10
300.8674013945328
 20
-54.56437642762135
 30
0.0
 10
300.7118211120516
 20
-54.63675269437346
 30
0.0
 10
300.5541700849522
 20
-54.70413921505588
 30
0.0
 10
300.3920033376575
 20
-54.76426565520765
 30
0.0
 10
300.3109199640114
 20
-54.79425402909257
 30
0.0
 10
300.2285642051177
 20
-54.82224650454661
 30
0.0
 10
300.1437135731853
 20
-54.84687090140831
 30
0.0
 10
300.1012258853969
 20
-54.85904588181995
 30
0.0
 10
300.0580645818847
 20
-54.87037260539919
 30
0.0
 10
300.0134812007482
 20
-54.88017745642673
 30
0.0
 10
300.0024788106569
 20
-54.88272222692168
 30
0.0
 10
299.991127138349
 20
-54.88496761265534
 30
0.0
 10
299.9797505173062
 20
-54.88718804965462
 30
0.0
 10
299.9745112839382
 20
-54.88826084506246
 30
0.0
 10
299.9675006907093
 20
-54.88945838411818
 30
0.0
 10
299.9636835349619
 20
-54.89048128206207
 30
0.0
 10
299.9636835349619
 20
-54.89048128206207
 30
0.0
 10
299.9510844261351
 20
-54.893400283516
 30
0.0
 10
299.9510844261351
 20
-54.893400283516
 30
0.0
 10
299.9342440331462
 20
-54.897466926562
 30
0.0
 10
299.9174784863522
 20
-54.90028613309251
 30
0.0
 10
299.9001640674832
 20
-54.90637362329864
 30
0.0
 10
299.7621975886291
 20
-54.94736438726842
 30
0.0
 10
299.6198900307019
 20
-55.02981994108555
 30
0.0
 10
299.4792041402357
 20
-55.11549388111532
 30
0.0
 10
299.40475712887
 20
-55.16129975004233
 30
0.0
 10
299.3281894754135
 20
-55.20975018438736
 30
0.0
 10
299.2527694635602
 20
-55.25760184920599
 30
0.0
 10
299.4544799484634
 20
-54.98154414785008
 30
0.0
 10
299.3532380006891
 20
-54.56996494322161
 30
0.0
 10
299.2577342609
 20
-54.3033129132095
 30
0.0
 10
298.9654598848112
 20
-53.48733973828585
 30
0.0
 10
297.98869214277
 20
-52.94585249470695
 30
0.0
 10
297.266950322392
 20
-53.22006399001647
 30
0.0
 10
296.9233314592367
 20
-53.35064564468394
 30
0.0
 10
296.5230540294541
 20
-53.53574027517014
 30
0.0
 10
296.3099419747826
 20
-54.13211472552545
 30
0.0
 10
296.1225520611005
 20
-54.6563374477009
 30
0.0
 10
296.070558907049
 20
-55.54034581029542
 30
0.0
 10
296.6510160674363
 20
-55.85866666086714
 30
0.0
 10
297.2314482790988
 20
-56.17696256271121
 30
0.0
 10
296.7795519262131
 20
-56.61044675259046
 30
0.0
 10
296.7795519262131
 20
-56.61044675259046
 30
0.0
 10
296.7795519262131
 20
-56.61044675259046
 30
0.0
 10
295.0766264385162
 20
-57.53641887963951
 30
0.0
 10
295.0631541241283
 20
-57.54150842062941
 30
0.0
 10
295.0496818097411
 20
-57.54659796162026
 30
0.0
 10
294.8486698892884
 20
-57.49774834758827
 30
0.0
 10
294.8991162220602
 20
-57.31991379763403
 30
0.0
 10
295.0428708063559
 20
-57.18626344913584
 30
0.0
 10
295.0979077055101
 20
-57.13584206509204
 30
0.0
 10
295.1479548585958
 20
-56.96055228563307
 30
0.0
 10
295.2710518941572
 20
-56.52714294194189
 30
0.0
 10
295.2695549703424
 20
-56.09286039268971
 30
0.0
 10
295.3123919403557
 20
-55.64954640304949
 30
0.0
 10
295.3192278924682
 20
-55.59413527293666
 30
0.0
 10
295.2986701386644
 20
-54.93531415050785
 30
0.0
 10
295.2981462153219
 20
-54.87521265908566
 30
0.0
 10
295.2871687739644
 20
-53.69591112403719
 30
0.0
 10
296.0285452451357
 20
-52.65791919770677
 30
0.0
 10
296.2109454127405
 20
-52.48387685476234
 30
0.0
 10
296.3920731951035
 20
-52.30963492197972
 30
0.0
 10
297.0221034827091
 20
-51.65697613594929
 30
0.0
 10
298.4904859563544
 20
-51.95952938893711
 30
0.0
 10
298.7205381989367
 20
-52.00695692533922
 30
0.0
 10
299.0681987564098
 20
-52.14424978847041
 30
0.0
 10
299.2435883307852
 20
-52.29838304458983
 30
0.0
 10
299.7415899373585
 20
-52.7358340825984
 30
0.0
 10
299.8137666142711
 20
-53.05003839266305
 30
0.0
 10
300.1729285364294
 20
-53.32242863065574
 30
0.0
 10
300.1844548498568
 20
-53.32642042751174
 30
0.0
 10
300.8437001006995
 20
-53.80640905076975
 30
0.0
 10
301.0014010252587
 20
-53.81396851606684
 30
0.0
 10
301.0014010252587
 20
-53.81396851606684
 30
0.0
 10
301.0605295161974
 20
-53.8165881327537
 30
0.0
 10
301.0605295161974
 20
-53.8165881327537
 30
0.0
 10
301.0801891157136
 20
-53.81711205608979
 30
0.0
 10
301.0996491253861
 20
-53.81643844037178
 30
0.0
 10
301.119183981256
 20
-53.81643844037178
 30
0.0
 10
301.119183981256
 20
-53.81643844037178
 30
0.0
 10
301.1778384463152
 20
-53.81598936322472
 30
0.0
 10
301.1778384463152
 20
-53.81598936322472
 30
0.0
 10
301.1778384463152
 20
-53.81598936322472
 30
0.0
 10
301.2356446545459
 20
-53.81207241255968
 30
0.0
 10
301.2356446545459
 20
-53.81207241255968
 30
0.0
 10
301.2356446545459
 20
-53.81207241255968
 30
0.0
 10
301.2934758115039
 20
-53.80813051316283
 30
0.0
 10
301.2934758115039
 20
-53.80813051316283
 30
0.0
 10
301.2934758115039
 20
-53.80813051316283
 30
0.0
 10
301.3499347882895
 20
-53.79997227833966
 30
0.0
 10
301.3499347882895
 20
-53.79997227833966
 30
0.0
 10
301.3499347882895
 20
-53.79997227833966
 30
0.0
 10
301.4076162528636
 20
-53.79166435113231
 30
0.0
 10
301.4076162528636
 20
-53.79166435113231
 30
0.0
 10
301.4312925979715
 20
-53.78762265681396
 30
0.0
 10
301.4546446095798
 20
-53.78360591122806
 30
0.0
 10
301.4820882129682
 20
-53.78121083311505
 30
0.0
 10
301.4884501392064
 20
-53.78046237120319
 30
0.0
 10
301.4957102197444
 20
-53.77996339659506
 30
0.0
 10
301.5033445312296
 20
-53.77961411436982
 30
0.0
 10
301.51092894526
 20
-53.77928978087704
 30
0.0
 10
301.5176152049913
 20
-53.77876585753934
 30
0.0
 10
301.5269460301413
 20
-53.77894049865148
 30
0.0
 10
301.5361770603716
 20
-53.7792149346848
 30
0.0
 10
301.5430379612192
 20
-53.77886565246117
 30
0.0
 10
301.5551879929029
 20
-53.78018793516955
 30
0.0
 10
301.5551879929029
 20
-53.78018793516955
 30
0.0
 10
301.5717788985851
 20
-53.78208403867605
 30
0.0
 10
301.5717788985851
 20
-53.78208403867605
 30
0.0
 10
301.5779412349829
 20
-53.78295724423738
 30
0.0
 10
301.5867730855279
 20
-53.7849531426673
 30
0.0
 10
301.59408306352
 20
-53.7867743999806
 30
0.0
 10
301.59408306352
 20
-53.7867743999806
 30
0.0
 10
301.6054846332934
 20
-53.78991794000484
 30
0.0
 10
301.6054846332934
 20
-53.78991794000484
 30
0.0
 10
301.6108985077809
 20
-53.79173919732135
 30
0.0
 10
301.6170608441811
 20
-53.79415922416715
 30
0.0
 10
301.6226992572351
 20
-53.79665409720135
 30
0.0
 10
301.6284624139482
 20
-53.79919886769694
 30
0.0
 10
301.6341008270124
 20
-53.80196817676766
 30
0.0
 10
301.6395645989539
 20
-53.80493707567752
 30
0.0
 10
301.6436312420021
 20
-53.80678328172648
 30
0.0
 10
301.654783324467
 20
-53.81439264448399
 30
0.0
 10
301.6620184562758
 20
-53.8204052884966
 30
0.0
 10
301.6700768961755
 20
-53.82691690712182
 30
0.0
 10
301.6776363614774
 20
-53.83412709019335
 30
0.0
 10
301.6843974673971
 20
-53.84171150421809
 30
0.0
 10
301.691832189045
 20
-53.8502689187311
 30
0.0
 10
301.7005143472068
 20
-53.86331710470438
 30
0.0
 10
301.7066517348779
 20
-53.87556693130857
 30
0.0
 10
301.7200242543404
 20
-53.90173814944803
 30
0.0
 10
301.7239661537366
 20
-53.92536459709189
 30
0.0
 10
301.7246647181877
 20
-53.95106178935664
 30
0.0
 10
301.7248892567607
 20
-53.96538236057916
 30
0.0
 10
301.7235669740506
 20
-53.97219336396439
 30
0.0
 10
301.7222945888075
 20
-53.98045139371227
 30
0.0
  0
SPLINE
  5
89
330
70
100
AcDbEntity
  8
Layer 2
100
AcDbSpline
210
0.0
220
0.0
230
1.0
 70
     9
 71
     3
 72
    17
 73
    13
 74
     0
 42
0.0000000001
 43
0.0000000001
 40
0.0
 40
0.0
 40
0.0
 40
0.0
 40
1.0
 40
1.0
 40
1.0
 40
2.0
 40
2.0
 40
2.0
 40
3.0
 40
3.0
 40
3.0
 40
4.0
 40
4.0
 40
4.0
 40
4.0
 10
319.192218889988
 20
-14.02645686248332
 30
0.0
 10
319.8188312015355
 20
-13.64152290186804
 30
0.0
 10
320.6387213271188
 20
-13.8376199224423
 30
0.0
 10
321.023530544081
 20
-14.46400769541146
 30
0.0
 10
321.4084395559674
 20
-15.09059505822426
 30
0.0
 10
321.2125920226982
 20
-15.91036044015867
 30
0.0
 10
320.5859797111507
 20
-16.29531934950417
 30
0.0
 10
319.9593923483414
 20
-16.68022836138731
 30
0.0
 10
319.1396020176797
 20
-16.48433093065668
 30
0.0
 10
318.7546930057889
 20
-15.85774356784485
 30
0.0
 10
318.369908737559
 20
-15.23135579487505
 30
0.0
 10
318.5656315271775
 20
-14.41136587436775
 30
0.0
 10
319.192218889988
 20
-14.02645686248332
 30
0.0
  0
SPLINE
  5
8A
330
70
100
AcDbEntity
  8
Layer 2
100
AcDbSpline
210
0.0
220
0.0
230
1.0
 70
     9
 71
     3
 72
    17
 73
    13
 74
     0
 42
0.0000000001
 43
0.0000000001
 40
0.0
 40
0.0
 40
0.0
 40
0.0
 40
1.0
 40
1.0
 40
1.0
 40
2.0
 40
2.0
 40
2.0
 40
3.0
 40
3.0
 40
3.0
 40
4.0
 40
4.0
 40
4.0
 40
4.0
 10
320.9796706761197
 20
-8.918828040991233
 30
0.0
 10
321.6825512563528
 20
-8.487040364773566
 30
0.0
 10
322.6024857906575
 20
-8.706664038069872
 30
0.0
 10
323.0344231592523
 20
-9.409744208143772
 30
0.0
 10
323.4662108354709
 20
-10.11264973710617
 30
0.0
 10
323.246362623602
 20
-11.0327090150593
 30
0.0
 10
322.5434820433688
 20
-11.46452164000685
 30
0.0
 10
321.8406014631389
 20
-11.89628436749367
 30
0.0
 10
320.920517236453
 20
-11.67646110435533
 30
0.0
 10
320.4887295602402
 20
-10.9735805241225
 30
0.0
 10
320.056817140367
 20
-10.27047540531903
 30
0.0
 10
320.2767651471618
 20
-9.350615717207936
 30
0.0
 10
320.9796706761197
 20
-8.918828040991233
 30
0.0
  0
SPLINE
  5
8B
330
70
100
AcDbEntity
  8
Layer 2
100
AcDbSpline
210
0.0
220
0.0
230
1.0
 70
     9
 71
     3
 72
    17
 73
    13
 74
     0
 42
0.0000000001
 43
0.0000000001
 40
0.0
 40
0.0
 40
0.0
 40
0.0
 40
1.0
 40
1.0
 40
1.0
 40
2.0
 40
2.0
 40
2.0
 40
3.0
 40
3.0
 40
3.0
 40
4.0
 40
4.0
 40
4.0
 40
4.0
 10
323.3269470226407
 20
-4.119864911424917
 30
0.0
 10
324.0554000514881
 20
-3.672359535084425
 30
0.0
 10
325.0086910382715
 20
-3.900341033050107
 30
0.0
 10
325.4561964146082
 20
-4.62879406189213
 30
0.0
 10
325.9035520985668
 20
-5.357047500891803
 30
0.0
 10
325.6759697802868
 20
-6.310413333866867
 30
0.0
 10
324.947491802712
 20
-6.757918710208001
 30
0.0
 10
324.2190387738683
 20
-7.205399137816355
 30
0.0
 10
323.2657477870842
 20
-6.977442588582491
 30
0.0
 10
322.8183921031269
 20
-6.249189149581856
 30
0.0
 10
322.3709116755189
 20
-5.520761069468121
 30
0.0
 10
322.5984690450677
 20
-4.567345339033592
 30
0.0
 10
323.3269470226407
 20
-4.119864911424917
 30
0.0
  0
SPLINE
  5
8C
330
70
100
AcDbEntity
  8
Layer 2
100
AcDbSpline
210
0.0
220
0.0
230
1.0
 70
     9
 71
     3
 72
    17
 73
    13
 74
     0
 42
0.0000000001
 43
0.0000000001
 40
0.0
 40
0.0
 40
0.0
 40
0.0
 40
1.0
 40
1.0
 40
1.0
 40
2.0
 40
2.0
 40
2.0
 40
3.0
 40
3.0
 40
3.0
 40
4.0
 40
4.0
 40
4.0
 40
4.0
 10
326.2043838891628
 20
0.3207097066226218
 30
0.0
 10
326.9083123160649
 20
0.7531460498303347
 30
0.0
 10
327.8296439792654
 20
0.5332229917695394
 30
0.0
 10
328.2622050661235
 20
-0.1709549224414609
 30
0.0
 10
328.6946414093316
 20
-0.8748833493480788
 30
0.0
 10
328.4744688639664
 20
-1.796314807470331
 30
0.0
 10
327.7705154883305
 20
-2.228751150676118
 30
0.0
 10
327.0665870614251
 20
-2.661187493881906
 30
0.0
 10
326.1451556033025
 20
-2.441039897249509
 30
0.0
 10
325.7127442088263
 20
-1.73711147034257
 30
0.0
 10
325.280158173237
 20
-1.032933556131891
 30
0.0
 10
325.5004305135237
 20
-0.1117016878526315
 30
0.0
 10
326.2043838891628
 20
0.3207097066226218
 30
0.0
  0
SPLINE
  5
8D
330
70
100
AcDbEntity
  8
Layer 2
100
AcDbSpline
210
0.0
220
0.0
230
1.0
 70
     9
 71
     3
 72
    17
 73
    13
 74
     0
 42
0.0000000001
 43
0.0000000001
 40
0.0
 40
0.0
 40
0.0
 40
0.0
 40
1.0
 40
1.0
 40
1.0
 40
2.0
 40
2.0
 40
2.0
 40
3.0
 40
3.0
 40
3.0
 40
4.0
 40
4.0
 40
4.0
 40
4.0
 10
329.584911903245
 20
4.349330889082709
 30
0.0
 10
330.2129961898773
 20
4.735187952722633
 30
0.0
 10
331.0351566499296
 20
4.538741649923779
 30
0.0
 10
331.4209887648316
 20
3.910657363290144
 30
0.0
 10
331.8067959310095
 20
3.282598025385439
 30
0.0
 10
331.6102498332897
 20
2.460662103909927
 30
0.0
 10
330.9821405979243
 20
2.074805040273854
 30
0.0
 10
330.3540812600231
 20
1.688997874095961
 30
0.0
 10
329.5322700821977
 20
1.885344381972678
 30
0.0
 10
329.1464379672957
 20
2.513428668605992
 30
0.0
 10
328.7606058523834
 20
3.141488006511338
 30
0.0
 10
328.9568276166101
 20
3.963498774175887
 30
0.0
 10
329.584911903245
 20
4.349330889082709
 30
0.0
  0
SPLINE
  5
8E
330
70
100
AcDbEntity
  8
Layer 2
100
AcDbSpline
210
0.0
220
0.0
230
1.0
 70
     9
 71
     3
 72
    17
 73
    13
 74
     0
 42
0.0000000001
 43
0.0000000001
 40
0.0
 40
0.0
 40
0.0
 40
0.0
 40
1.0
 40
1.0
 40
1.0
 40
2.0
 40
2.0
 40
2.0
 40
3.0
 40
3.0
 40
3.0
 40
4.0
 40
4.0
 40
4.0
 40
4.0
 10
336.4911695420696
 20
-34.27008120937761
 30
0.0
 10
337.1925531984758
 20
-34.04337209666245
 30
0.0
 10
337.9448322648059
 20
-34.42813141616495
 30
0.0
 10
338.1715413775231
 20
-35.12954002130459
 30
0.0
 10
338.398225541509
 20
-35.83089872898476
 30
0.0
 10
338.0135410681962
 20
-36.58340233388846
 30
0.0
 10
337.3121324630575
 20
-36.81011144660458
 30
0.0
 10
336.6107488066455
 20
-37.03682055932134
 30
0.0
 10
335.8581703555509
 20
-36.6518865987051
 30
0.0
 10
335.6314861915649
 20
-35.95050294229696
 30
0.0
 10
335.404752130123
 20
-35.24911928588593
 30
0.0
 10
335.7897858856544
 20
-34.49679032209662
 30
0.0
 10
336.4911695420696
 20
-34.27008120937761
 30
0.0
  0
SPLINE
  5
8F
330
70
100
AcDbEntity
  8
Layer 2
100
AcDbSpline
210
0.0
220
0.0
230
1.0
 70
     9
 71
     3
 72
    17
 73
    13
 74
     0
 42
0.0000000001
 43
0.0000000001
 40
0.0
 40
0.0
 40
0.0
 40
0.0
 40
1.0
 40
1.0
 40
1.0
 40
2.0
 40
2.0
 40
2.0
 40
3.0
 40
3.0
 40
3.0
 40
4.0
 40
4.0
 40
4.0
 40
4.0
 10
340.6277438807631
 20
-30.84604260955964
 30
0.0
 10
341.4138534254516
 20
-30.59193979091397
 30
0.0
 10
342.2572951524926
 20
-31.0233532361778
 30
0.0
 10
342.5113979711344
 20
-31.80946278086567
 30
0.0
 10
342.7655506872412
 20
-32.59582181285632
 30
0.0
 10
342.3340623957864
 20
-33.43903900132407
 30
0.0
 10
341.5479528510972
 20
-33.69311687123888
 30
0.0
 10
340.7618433064131
 20
-33.94719474115241
 30
0.0
 10
339.9184764255613
 20
-33.51603078319201
 30
0.0
 10
339.6642987607265
 20
-32.72967175120136
 30
0.0
 10
339.4102208908127
 20
-31.94356220651252
 30
0.0
 10
339.8416343360778
 20
-31.10012047947285
 30
0.0
 10
340.6277438807631
 20
-30.84604260955964
 30
0.0
  0
SPLINE
  5
90
330
70
100
AcDbEntity
  8
Layer 2
100
AcDbSpline
210
0.0
220
0.0
230
1.0
 70
     9
 71
     3
 72
    17
 73
    13
 74
     0
 42
0.0000000001
 43
0.0000000001
 40
0.0
 40
0.0
 40
0.0
 40
0.0
 40
1.0
 40
1.0
 40
1.0
 40
2.0
 40
2.0
 40
2.0
 40
3.0
 40
3.0
 40
3.0
 40
4.0
 40
4.0
 40
4.0
 40
4.0
 10
344.4399348274144
 20
-27.11109293208031
 30
0.0
 10
345.2534380780296
 20
-26.84815826289249
 30
0.0
 10
346.1259700246588
 20
-27.29464074128716
 30
0.0
 10
346.3888547963891
 20
-28.10789450460052
 30
0.0
 10
346.6517645168467
 20
-28.92137280648516
 30
0.0
 10
346.2056063719467
 20
-29.79412929169141
 30
0.0
 10
345.3921280700627
 20
-30.0570639608802
 30
0.0
 10
344.5786248194444
 20
-30.31999863006769
 30
0.0
 10
343.7060429753547
 20
-29.87346625421259
 30
0.0
 10
343.4431083061634
 20
-29.05998795232763
 30
0.0
 10
343.1802734318948
 20
-28.24675913774417
 30
0.0
 10
343.626431576798
 20
-27.37400265254112
 30
0.0
 10
344.4399348274144
 20
-27.11109293208031
 30
0.0
  0
SPLINE
  5
91
330
70
100
AcDbEntity
  8
Layer 2
100
AcDbSpline
210
0.0
220
0.0
230
1.0
 70
     9
 71
     3
 72
    17
 73
    13
 74
     0
 42
0.0000000001
 43
0.0000000001
 40
0.0
 40
0.0
 40
0.0
 40
0.0
 40
1.0
 40
1.0
 40
1.0
 40
2.0
 40
2.0
 40
2.0
 40
3.0
 40
3.0
 40
3.0
 40
4.0
 40
4.0
 40
4.0
 40
4.0
 10
347.8868264642358
 20
-23.10480086328656
 30
0.0
 10
348.6717634186001
 20
-22.85109722432816
 30
0.0
 10
349.5139577091201
 20
-23.28186200260129
 30
0.0
 10
349.7676613480779
 20
-24.06679895696335
 30
0.0
 10
350.0214398332273
 20
-24.85198539862915
 30
0.0
 10
349.5906002087651
 20
-25.69393020184766
 30
0.0
 10
348.8056632544001
 20
-25.94763384080573
 30
0.0
 10
348.0207512487715
 20
-26.20133747976381
 30
0.0
 10
347.1786318044379
 20
-25.77082218879506
 30
0.0
 10
346.924828370558
 20
-24.98563574712959
 30
0.0
 10
346.6711496803308
 20
-24.2007237414971
 30
0.0
 10
347.1018895098735
 20
-23.35850450224496
 30
0.0
 10
347.8868264642358
 20
-23.10480086328656
 30
0.0
  0
SPLINE
  5
92
330
70
100
AcDbEntity
  8
Layer 2
100
AcDbSpline
210
0.0
220
0.0
230
1.0
 70
     9
 71
     3
 72
    17
 73
    13
 74
     0
 42
0.0000000001
 43
0.0000000001
 40
0.0
 40
0.0
 40
0.0
 40
0.0
 40
1.0
 40
1.0
 40
1.0
 40
2.0
 40
2.0
 40
2.0
 40
3.0
 40
3.0
 40
3.0
 40
4.0
 40
4.0
 40
4.0
 40
4.0
 10
350.9291494896547
 20
-18.87244834876448
 30
0.0
 10
351.6288865298636
 20
-18.64628810811531
 30
0.0
 10
352.3792445439561
 20
-19.03009937586423
 30
0.0
 10
352.6054047846053
 20
-19.72983641607122
 30
0.0
 10
352.8315151277972
 20
-20.42934891770403
 30
0.0
 10
352.4478036549656
 20
-21.1799564191009
 30
0.0
 10
351.7480416660313
 20
-21.40614160848125
 30
0.0
 10
351.0483046258211
 20
-21.63230184912947
 30
0.0
 10
350.2978468168071
 20
-21.24826604280765
 30
0.0
 10
350.0717614223502
 20
-20.54875354117356
 30
0.0
 10
349.8456011816997
 20
-19.84901650096753
 30
0.0
 10
350.2293625519879
 20
-19.09863353814419
 30
0.0
 10
350.9291494896547
 20
-18.87244834876448
 30
0.0
  0
SPLINE
  5
93
330
70
100
AcDbEntity
  8
Layer 2
100
AcDbSpline
210
0.0
220
0.0
230
1.0
 70
     9
 71
     3
 72
   194
 73
   190
 74
     0
 42
0.0000000001
 43
0.0000000001
 40
0.0
 40
0.0
 40
0.0
 40
0.0
 40
1.0
 40
1.0
 40
1.0
 40
2.0
 40
2.0
 40
2.0
 40
3.0
 40
3.0
 40
3.0
 40
4.0
 40
4.0
 40
4.0
 40
5.0
 40
5.0
 40
5.0
 40
6.0
 40
6.0
 40
6.0
 40
7.0
 40
7.0
 40
7.0
 40
8.0
 40
8.0
 40
8.0
 40
9.0
 40
9.0
 40
9.0
 40
10.0
 40
10.0
 40
10.0
 40
11.0
 40
11.0
 40
11.0
 40
12.0
 40
12.0
 40
12.0
 40
13.0
 40
13.0
 40
13.0
 40
14.0
 40
14.0
 40
14.0
 40
15.0
 40
15.0
 40
15.0
 40
16.0
 40
16.0
 40
16.0
 40
17.0
 40
17.0
 40
17.0
 40
18.0
 40
18.0
 40
18.0
 40
19.0
 40
19.0
 40
19.0
 40
20.0
 40
20.0
 40
20.0
 40
21.0
 40
21.0
 40
21.0
 40
22.0
 40
22.0
 40
22.0
 40
23.0
 40
23.0
 40
23.0
 40
24.0
 40
24.0
 40
24.0
 40
25.0
 40
25.0
 40
25.0
 40
26.0
 40
26.0
 40
26.0
 40
27.0
 40
27.0
 40
27.0
 40
28.0
 40
28.0
 40
28.0
 40
29.0
 40
29.0
 40
29.0
 40
30.0
 40
30.0
 40
30.0
 40
31.0
 40
31.0
 40
31.0
 40
32.0
 40
32.0
 40
32.0
 40
33.0
 40
33.0
 40
33.0
 40
34.0
 40
34.0
 40
34.0
 40
35.0
 40
35.0
 40
35.0
 40
36.0
 40
36.0
 40
36.0
 40
37.0
 40
37.0
 40
37.0
 40
38.0
 40
38.0
 40
38.0
 40
39.0
 40
39.0
 40
39.0
 40
40.0
 40
40.0
 40
40.0
 40
41.0
 40
41.0
 40
41.0
 40
42.0
 40
42.0
 40
42.0
 40
43.0
 40
43.0
 40
43.0
 40
44.0
 40
44.0
 40
44.0
 40
45.0
 40
45.0
 40
45.0
 40
46.0
 40
46.0
 40
46.0
 40
47.0
 40
47.0
 40
47.0
 40
48.0
 40
48.0
 40
48.0
 40
49.0
 40
49.0
 40
49.0
 40
50.0
 40
50.0
 40
50.0
 40
51.0
 40
51.0
 40
51.0
 40
52.0
 40
52.0
 40
52.0
 40
53.0
 40
53.0
 40
53.0
 40
54.0
 40
54.0
 40
54.0
 40
55.0
 40
55.0
 40
55.0
 40
56.0
 40
56.0
 40
56.0
 40
57.0
 40
57.0
 40
57.0
 40
58.0
 40
58.0
 40
58.0
 40
59.0
 40
59.0
 40
59.0
 40
60.0
 40
60.0
 40
60.0
 40
61.0
 40
61.0
 40
61.0
 40
62.0
 40
62.0
 40
62.0
 40
63.0
 40
63.0
 40
63.0
 40
63.0
 10
333.9349226301113
 20
-41.67119691474969
 30
0.0
 10
340.6067121010785
 20
-37.22331231870946
 30
0.0
 10
347.5232985142641
 20
-33.66632193483896
 30
0.0
 10
351.843570354549
 20
-26.95017362130653
 30
0.0
 10
356.1638421948377
 20
-20.23405025650271
 30
0.0
 10
354.5997314428228
 20
-6.93038928313583
 30
0.0
 10
351.9094849001456
 20
0.3672141400020159
 30
0.0
 10
339.4500141157239
 20
-11.30033404555423
 30
0.0
 10
329.9065010374936
 20
-16.96900991522309
 30
0.0
 10
324.3445059388151
 20
-35.27973137802843
 30
0.0
 10
323.3806865878205
 20
-38.45273585303658
 30
0.0
 10
321.5047666038565
 20
-41.92435168164083
 30
0.0
 10
319.1789960629042
 20
-45.38706081350714
 30
0.0
 10
319.1169735192492
 20
-45.35280620673388
 30
0.0
 10
319.0594916445109
 20
-45.31301298181853
 30
0.0
 10
318.9964961003689
 20
-45.27998086283022
 30
0.0
 10
318.1532290144462
 20
-44.83691636049438
 30
0.0
 10
317.303724745929
 20
-44.4238402320425
 30
0.0
 10
316.4491558851505
 20
-44.0454178900502
 30
0.0
 10
318.1619860187996
 20
-39.9867334875152
 30
0.0
 10
320.5314417866046
 20
-36.16563584412978
 30
0.0
 10
322.8768968758055
 20
-32.08666812381686
 30
0.0
 10
326.8739329656393
 20
-25.13540297543755
 30
0.0
 10
332.8452369344918
 20
-17.97419426113936
 30
0.0
 10
335.0976332594773
 20
-10.31273855453676
 30
0.0
 10
337.3500295844634
 20
-2.651282847932868
 30
0.0
 10
335.2492217451017
 20
7.01946875510085
 30
0.0
 10
330.6114274136165
 20
13.26308811575086
 30
0.0
 10
320.4718891672507
 20
2.005697057196092
 30
0.0
 10
314.1866303756373
 20
-7.419534090434539
 30
0.0
 10
314.2098326948695
 20
-28.7074124949804
 30
0.0
 10
314.2141737739529
 20
-32.69142534756984
 30
0.0
 10
313.0308554933163
 20
-37.45972648753226
 30
0.0
 10
311.3172768977589
 20
-42.27510588167123
 30
0.0
 10
307.8013521240479
 20
-41.43470789973463
 30
0.0
 10
304.2240035762095
 20
-41.40357188425539
 30
0.0
 10
300.6342305606547
 20
-42.65011024760566
 30
0.0
 10
294.4911296345988
 20
-44.78552197596777
 30
0.0
 10
282.1066048361617
 20
-57.26497669339654
 30
0.0
 10
281.2569508752613
 20
-65.98508187506516
 30
0.0
 10
281.2175069325789
 20
-66.3897253326596
 30
0.0
 10
281.0913911006453
 20
-67.12321800503044
 30
0.0
 10
281.0859522774248
 20
-67.22358674724332
 30
0.0
 10
281.0769956832309
 20
-67.48312838910476
 30
0.0
 10
281.5900912716666
 20
-68.13481417465268
 30
0.0
 10
282.4535668291746
 20
-68.94949001559592
 30
0.0
 10
282.6246652219424
 20
-68.68376108860589
 30
0.0
 10
282.7648022403342
 20
-68.39630181748042
 30
0.0
 10
282.8581853380408
 20
-68.09247617924111
 30
0.0
 10
282.929713347964
 20
-67.88879474464147
 30
0.0
 10
282.996052021974
 20
-67.65544926965002
 30
0.0
 10
282.9894655571603
 20
-67.44248690735702
 30
0.0
 10
282.987744094765
 20
-67.21330787033626
 30
0.0
 10
282.8982031015236
 20
-67.00718146016062
 30
0.0
 10
282.6383620749069
 20
-66.87667465168667
 30
0.0
 10
282.3958853646037
 20
-66.75836777235264
 30
0.0
 10
282.1148129684492
 20
-66.76919552132311
 30
0.0
 10
281.8463646298482
 20
-66.80841492543874
 30
0.0
 10
281.80926586782
 20
-66.81490159533054
 30
0.0
 10
281.7647323841387
 20
-66.82266065047063
 30
0.0
 10
281.723741620169
 20
-66.80689305288705
 30
0.0
 10
281.6827259074661
 20
-66.79110050657486
 30
0.0
 10
281.645252914474
 20
-66.75175635881074
 30
0.0
 10
281.6536606366045
 20
-66.7120379800886
 30
0.0
 10
281.6632908465215
 20
-66.67972937428065
 30
0.0
 10
281.6904101164123
 20
-66.65977038999905
 30
0.0
 10
281.7174794888478
 20
-66.63971161079338
 30
0.0
 10
282.1019893210449
 20
-66.38905171693934
 30
0.0
 10
282.9664877765017
 20
-66.16977732586538
 30
0.0
 10
283.4096520737613
 20
-66.29893690290329
 30
0.0
 10
283.6107138916789
 20
-66.35559546953547
 30
0.0
 10
283.7585600677514
 20
-66.41390065236912
 30
0.0
 10
283.8393690053597
 20
-66.61396452107173
 30
0.0
 10
283.9427814926704
 20
-66.85589235930031
 30
0.0
 10
283.9694017879621
 20
-67.09597399148539
 30
0.0
 10
283.9392637216933
 20
-67.36130373878912
 30
0.0
 10
283.8604257337819
 20
-68.00700182905079
 30
0.0
 10
283.2510529949099
 20
-68.78722347337745
 30
0.0
 10
282.8945356381619
 20
-69.33217859047818
 30
0.0
 10
283.0309802444656
 20
-69.40949470584211
 30
0.0
 10
283.2081910761616
 20
-69.47718061128902
 30
0.0
 10
283.2374309881394
 20
-69.64715631118107
 30
0.0
 10
284.2675890131337
 20
-75.63734646890566
 30
0.0
 10
300.9135814944203
 20
-76.20730021381618
 30
0.0
 10
303.4356486457882
 20
-76.96631543734348
 30
0.0
 10
304.3939792761018
 20
-77.25472276022414
 30
0.0
 10
305.1217586892306
 20
-77.83687643427426
 30
0.0
 10
305.6714291163629
 20
-78.60819138186812
 30
0.0
 10
305.3436277482516
 20
-78.67006423314029
 30
0.0
 10
305.0141548152138
 20
-78.72991623725842
 30
0.0
 10
304.6824863939042
 20
-78.78692408611647
 30
0.0
 10
300.8327476080751
 20
-79.44235218121697
 30
0.0
 10
293.5716940749081
 20
-79.78786714787236
 30
0.0
 10
289.6767481896726
 20
-80.15700856217289
 30
0.0
 10
268.9438542918253
 20
-82.10073919523326
 30
0.0
 10
251.6375437642939
 20
-96.53674819312987
 30
0.0
 10
245.1886462503035
 20
-116.3429963482062
 30
0.0
 10
244.2170428954457
 20
-119.329334422716
 30
0.0
 10
243.5296804254869
 20
-122.4240497818771
 30
0.0
 10
243.1399064111874
 20
-125.5556892619616
 30
0.0
 10
241.6789586591856
 20
-125.3558000343728
 30
0.0
 10
240.7353228310471
 20
-123.6882767950486
 30
0.0
 10
237.7410510602829
 20
-123.2153985599387
 30
0.0
 10
235.6189869026649
 20
-122.8802622651099
 30
0.0
 10
235.0971592586025
 20
-122.6367377081352
 30
0.0
 10
234.0535039704771
 20
-122.6367377081352
 30
0.0
 10
230.8768569808371
 20
-122.6367377081352
 30
0.0
 10
232.7725114105147
 20
-131.681650410267
 30
0.0
 10
234.8188561715142
 20
-140.1003499805402
 30
0.0
 10
237.1822244491124
 20
-149.8233442249333
 30
0.0
 10
242.6692985105414
 20
-163.1930943850044
 30
0.0
 10
251.9630498492088
 20
-166.4273729417605
 30
0.0
 10
255.5028256091376
 20
-167.6592414516643
 30
0.0
 10
255.4693444130029
 20
-167.6291283341267
 30
0.0
 10
260.60516529979
 20
-168.0234929148189
 30
0.0
 10
261.7064272063032
 20
-168.1080691107103
 30
0.0
 10
262.5279888968252
 20
-168.1679710122892
 30
0.0
 10
263.1411787914369
 20
-168.2099846742057
 30
0.0
 10
263.8163912297024
 20
-168.5993844575511
 30
0.0
 10
264.5034792636252
 20
-168.9662056399283
 30
0.0
 10
265.2024179444577
 20
-169.3044355773241
 30
0.0
 10
265.2024179444577
 20
-169.3044355773241
 30
0.0
 10
265.5038984020406
 20
-169.8478438731384
 30
0.0
 10
265.5038984020406
 20
-169.8478438731384
 30
0.0
 10
265.5038984020406
 20
-169.8478438731384
 30
0.0
 10
265.1792655226924
 20
-170.837709698621
 30
0.0
 10
265.1792655226924
 20
-170.837709698621
 30
0.0
 10
265.1792655226924
 20
-170.837709698621
 30
0.0
 10
264.9000892300399
 20
-171.1859939743452
 30
0.0
 10
264.9000892300399
 20
-171.1859939743452
 30
0.0
 10
264.9000892300399
 20
-171.1859939743452
 30
0.0
 10
264.1141543264684
 20
-171.7665259809292
 30
0.0
 10
264.1141543264684
 20
-171.7665259809292
 30
0.0
 10
264.1141543264684
 20
-171.7665259809292
 30
0.0
 10
261.6978947405239
 20
-168.1062229046642
 30
0.0
 10
258.5515105607984
 20
-170.9732312018962
 30
0.0
 10
256.8925447359819
 20
-172.4848747739757
 30
0.0
 10
257.5932797254032
 20
-174.5219885047531
 30
0.0
 10
258.404687282672
 20
-175.3931981686749
 30
0.0
 10
259.5196460421389
 20
-176.5903380459243
 30
0.0
 10
261.6804306292781
 20
-176.5757929361318
 30
0.0
 10
263.115132316945
 20
-176.5756931412097
 30
0.0
 10
264.231163871821
 20
-176.5756432437461
 30
0.0
 10
277.436745661073
 20
-176.6083011317776
 30
0.0
 10
290.7939715585069
 20
-176.6442522522173
 30
0.0
 10
290.7939715585069
 20
-176.6442522522173
 30
0.0
 10
290.7939715585069
 20
-171.4299948796168
 30
0.0
 10
290.7939715585069
 20
-171.4299948796168
 30
0.0
 10
291.130055905096
 20
-171.4159986418883
 30
0.0
 10
290.7095008826341
 20
-171.4413691782366
 30
0.0
 10
291.0335100437247
 20
-171.430167198312
 30
0.0
 10
291.0335100437247
 20
-171.430167198312
 30
0.0
 10
293.793971557757
 20
-171.4299948796168
 30
0.0
 10
293.793971557757
 20
-171.4299948796168
 30
0.0
 10
293.793971557757
 20
-171.4299948796168
 30
0.0
 10
293.793971557757
 20
-176.6499405627368
 30
0.0
 10
293.793971557757
 20
-176.6499405627368
 30
0.0
 10
293.793971557757
 20
-176.6499405627368
 30
0.0
 10
324.0095442850988
 20
-176.7369118367492
 30
0.0
 10
324.0095442850988
 20
-176.7369118367492
 30
0.0
 10
324.0095442850988
 20
-176.7369118367492
 30
0.0
 10
324.1337141160621
 20
-176.7085451303362
 30
0.0
 10
324.321403414505
 20
-176.6364931970775
 30
0.0
 10
324.3923825523642
 20
-176.6408592248896
 30
0.0
 10
324.4647089216524
 20
-176.6442522522173
 30
0.0
 10
324.5418004984419
 20
-176.6442522522173
 30
0.0
 10
324.5418004984419
 20
-176.6442522522173
 30
0.0
 10
351.0105821455308
 20
-176.6442522522173
 30
0.0
 10
351.0105821455308
 20
-176.6442522522173
 30
0.0
 10
351.0105821455308
 20
-176.6442522522173
 30
0.0
 10
349.2806870803199
 20
-160.5170436698961
 30
0.0
 10
341.7382118687678
 20
-162.5740914362199
 30
0.0
 10
336.5660406818543
 20
-163.9846677016434
 30
0.0
 10
335.6253238551691
 20
-141.2418292403762
 30
0.0
 10
334.2546406095847
 20
-135.0579121914627
 30
0.0
 10
342.0624705171676
 20
-126.2342198813689
 30
0.0
 10
338.2366076662854
 20
-112.1186523761263
 30
0.0
 10
337.5976706819482
 20
-100.1077597634571
 30
0.0
 10
336.6004948784708
 20
-81.36228172552135
 30
0.0
 10
329.5328439029994
 20
-75.62644387374134
 30
0.0
 10
326.2453996018611
 20
-56.43041671436459
 30
0.0
 10
326.2113944823923
 20
-56.15914916923888
 30
0.0
 10
326.1725243605026
 20
-55.91801969037779
 30
0.0
 10
326.1265687991917
 20
-55.72097461804995
 30
0.0
 10
325.862112257448
 20
-54.58675543874779
 30
0.0
 10
325.2992190032287
 20
-52.82450187027049
 30
0.0
 10
324.3460777088259
 20
-51.01554427857595
 30
0.0
 10
326.7487901341902
 20
-46.79284692270045
 30
0.0
 10
329.9071497044843
 20
-44.35637886516944
 30
0.0
 10
333.9349226301113
 20
-41.67119691474969
 30
0.0
  0
HATCH
  5
94
330
70
100
AcDbEntity
  8
Layer 2
 62
   255
440
 33554687
100
AcDbHatch
 10
0.0
 20
0.0
 30
0.0
210
0.0
220
0.0
230
1.0
  2
SOLID
 70
     1
 71
     1
 91
       24
 92
        1
 93
        1
 72
     4
 94
        3
 73
     0
 74
     0
 95
       86
 96
       82
 40
0.0
 40
0.0
 40
0.0
 40
0.0
 40
1.0
 40
1.0
 40
1.0
 40
2.0
 40
2.0
 40
2.0
 40
3.0
 40
3.0
 40
3.0
 40
4.0
 40
4.0
 40
4.0
 40
5.0
 40
5.0
 40
5.0
 40
6.0
 40
6.0
 40
6.0
 40
7.0
 40
7.0
 40
7.0
 40
8.0
 40
8.0
 40
8.0
 40
9.0
 40
9.0
 40
9.0
 40
10.0
 40
10.0
 40
10.0
 40
11.0
 40
11.0
 40
11.0
 40
12.0
 40
12.0
 40
12.0
 40
13.0
 40
13.0
 40
13.0
 40
14.0
 40
14.0
 40
14.0
 40
15.0
 40
15.0
 40
15.0
 40
16.0
 40
16.0
 40
16.0
 40
17.0
 40
17.0
 40
17.0
 40
18.0
 40
18.0
 40
18.0
 40
19.0
 40
19.0
 40
19.0
 40
20.0
 40
20.0
 40
20.0
 40
21.0
 40
21.0
 40
21.0
 40
22.0
 40
22.0
 40
22.0
 40
23.0
 40
23.0
 40
23.0
 40
24.0
 40
24.0
 40
24.0
 40
25.0
 40
25.0
 40
25.0
 40
26.0
 40
26.0
 40
26.0
 40
27.0
 40
27.0
 40
27.0
 40
27.0
 10
331.4384750944453
 20
-152.4750590635362
 10
333.9495648044601
 20
-155.4746199651321
 10
332.0115751097485
 20
-159.6972283904987
 10
332.0115751097485
 20
-159.6972283904987
 10
332.0115751097485
 20
-159.6972283904987
 10
325.6346297340901
 20
-159.6800137665576
 10
325.6346297340901
 20
-159.6800137665576
 10
325.6346297340901
 20
-159.6800137665576
 10
325.679337858882
 20
-157.1759405834888
 10
325.679337858882
 20
-157.1759405834888
 10
325.679337858882
 20
-157.1759405834888
 10
318.0306309534885
 20
-157.1759405834888
 10
318.0306309534885
 20
-157.1759405834888
 10
318.0306309534885
 20
-157.1759405834888
 10
318.0306309534885
 20
-159.6886210785259
 10
318.0306309534885
 20
-159.6886210785259
 10
318.0306309534885
 20
-159.6886210785259
 10
310.225645201164
 20
-159.6901429510769
 10
310.225645201164
 20
-159.6901429510769
 10
309.8999644751437
 20
-159.9016083895498
 10
301.971557353759
 20
-165.0300943496195
 10
298.2568161478676
 20
-165.5375265762636
 10
297.0141697864525
 20
-165.7072527888551
 10
296.0866508381225
 20
-165.903549399272
 10
295.3606926823188
 20
-166.020209662403
 10
294.6849812694381
 20
-166.1287865368992
 10
293.7802405119238
 20
-166.1755404575768
 10
293.0958469408839
 20
-166.1743678672526
 10
293.0958469408839
 20
-166.1743678672526
 10
290.4937941600019
 20
-166.1699519419788
 10
290.4937941600019
 20
-166.1699519419788
 10
289.9300027514833
 20
-166.1689789414982
 10
289.369579421567
 20
-166.1256429968755
 10
288.8125491189803
 20
-166.0385719279403
 10
286.8183472044155
 20
-165.7269123883726
 10
282.0043649391732
 20
-164.7919836671284
 10
278.0546565908245
 20
-162.5935015484326
 10
276.9666175114054
 20
-161.9330837072605
 10
275.930771175882
 20
-161.1935783908729
 10
274.9538786901811
 20
-160.3714179308283
 10
274.71611728992
 20
-160.1465300754242
 10
274.4874871249685
 20
-159.9147314217159
 10
274.27327732616
 20
-159.673028122058
 10
274.27327732616
 20
-159.673028122058
 10
265.9439940054707
 20
-159.6714064545842
 10
265.9439940054707
 20
-159.6714064545842
 10
265.9439940054707
 20
-159.6714064545842
 10
265.9439940054707
 20
-157.1587259595413
 10
265.9439940054707
 20
-157.1587259595413
 10
265.9439940054707
 20
-157.1587259595413
 10
258.2952871000766
 20
-157.1587259595413
 10
258.2952871000766
 20
-157.1587259595413
 10
258.2952871000766
 20
-157.1587259595413
 10
258.2952871000766
 20
-159.5082168093452
 10
258.2952871000766
 20
-159.5082168093452
 10
258.2952871000766
 20
-159.5082168093452
 10
248.3630614036307
 20
-159.6800137665576
 10
248.3630614036307
 20
-159.6800137665576
 10
248.3630614036307
 20
-159.6800137665576
 10
247.951880506384
 20
-156.4953987986586
 10
250.4629702163938
 20
-153.4958628457881
 10
251.0449492493385
 20
-152.8006664745089
 10
252.2729687864792
 20
-151.5181894863126
 10
252.9867020644133
 20
-151.0639479527791
 10
256.3476694840053
 20
-149.0289934462081
 10
263.9371008463431
 20
-148.5219373363976
 10
266.7588521467101
 20
-149.5009504641763
 10
263.8113592453669
 20
-143.9939922646532
 10
263.9316294152044
 20
-139.7858712344423
 10
263.9316294152044
 20
-131.5182112777259
 10
263.9316294152044
 20
-109.5810920632062
 10
279.2921635137874
 20
-91.08672299627448
 10
292.162415143464
 20
-91.21678072760138
 10
305.2050874486062
 20
-91.34855992132811
 10
320.3931509742575
 20
-109.8773582361485
 10
320.3931509742575
 20
-131.814477450665
 10
320.3931509742575
 20
-139.8233442274333
 10
320.076140294816
 20
-144.1246737142425
 10
317.4772061052226
 20
-149.5009504641763
 10
319.9209092945605
 20
-148.6757462590229
 10
328.9274103331552
 20
-149.4755231106728
 10
331.4384750944453
 20
-152.4750590635362
 97
        1
330
7C
 92
        1
 93
        1
 72
     4
 94
        3
 73
     0
 74
     0
 95
      287
 96
      283
 40
0.0
 40
0.0
 40
0.0
 40
0.0
 40
1.0
 40
1.0
 40
1.0
 40
2.0
 40
2.0
 40
2.0
 40
3.0
 40
3.0
 40
3.0
 40
4.0
 40
4.0
 40
4.0
 40
5.0
 40
5.0
 40
5.0
 40
6.0
 40
6.0
 40
6.0
 40
7.0
 40
7.0
 40
7.0
 40
8.0
 40
8.0
 40
8.0
 40
9.0
 40
9.0
 40
9.0
 40
10.0
 40
10.0
 40
10.0
 40
11.0
 40
11.0
 40
11.0
 40
12.0
 40
12.0
 40
12.0
 40
13.0
 40
13.0
 40
13.0
 40
14.0
 40
14.0
 40
14.0
 40
15.0
 40
15.0
 40
15.0
 40
16.0
 40
16.0
 40
16.0
 40
17.0
 40
17.0
 40
17.0
 40
18.0
 40
18.0
 40
18.0
 40
19.0
 40
19.0
 40
19.0
 40
20.0
 40
20.0
 40
20.0
 40
21.0
 40
21.0
 40
21.0
 40
22.0
 40
22.0
 40
22.0
 40
23.0
 40
23.0
 40
23.0
 40
24.0
 40
24.0
 40
24.0
 40
25.0
 40
25.0
 40
25.0
 40
26.0
 40
26.0
 40
26.0
 40
27.0
 40
27.0
 40
27.0
 40
28.0
 40
28.0
 40
28.0
 40
29.0
 40
29.0
 40
29.0
 40
30.0
 40
30.0
 40
30.0
 40
31.0
 40
31.0
 40
31.0
 40
32.0
 40
32.0
 40
32.0
 40
33.0
 40
33.0
 40
33.0
 40
34.0
 40
34.0
 40
34.0
 40
35.0
 40
35.0
 40
35.0
 40
36.0
 40
36.0
 40
36.0
 40
37.0
 40
37.0
 40
37.0
 40
38.0
 40
38.0
 40
38.0
 40
39.0
 40
39.0
 40
39.0
 40
40.0
 40
40.0
 40
40.0
 40
41.0
 40
41.0
 40
41.0
 40
42.0
 40
42.0
 40
42.0
 40
43.0
 40
43.0
 40
43.0
 40
44.0
 40
44.0
 40
44.0
 40
45.0
 40
45.0
 40
45.0
 40
46.0
 40
46.0
 40
46.0
 40
47.0
 40
47.0
 40
47.0
 40
48.0
 40
48.0
 40
48.0
 40
49.0
 40
49.0
 40
49.0
 40
50.0
 40
50.0
 40
50.0
 40
51.0
 40
51.0
 40
51.0
 40
52.0
 40
52.0
 40
52.0
 40
53.0
 40
53.0
 40
53.0
 40
54.0
 40
54.0
 40
54.0
 40
55.0
 40
55.0
 40
55.0
 40
56.0
 40
56.0
 40
56.0
 40
57.0
 40
57.0
 40
57.0
 40
58.0
 40
58.0
 40
58.0
 40
59.0
 40
59.0
 40
59.0
 40
60.0
 40
60.0
 40
60.0
 40
61.0
 40
61.0
 40
61.0
 40
62.0
 40
62.0
 40
62.0
 40
63.0
 40
63.0
 40
63.0
 40
64.0
 40
64.0
 40
64.0
 40
65.0
 40
65.0
 40
65.0
 40
66.0
 40
66.0
 40
66.0
 40
67.0
 40
67.0
 40
67.0
 40
68.0
 40
68.0
 40
68.0
 40
69.0
 40
69.0
 40
69.0
 40
70.0
 40
70.0
 40
70.0
 40
71.0
 40
71.0
 40
71.0
 40
72.0
 40
72.0
 40
72.0
 40
73.0
 40
73.0
 40
73.0
 40
74.0
 40
74.0
 40
74.0
 40
75.0
 40
75.0
 40
75.0
 40
76.0
 40
76.0
 40
76.0
 40
77.0
 40
77.0
 40
77.0
 40
78.0
 40
78.0
 40
78.0
 40
79.0
 40
79.0
 40
79.0
 40
80.0
 40
80.0
 40
80.0
 40
81.0
 40
81.0
 40
81.0
 40
82.0
 40
82.0
 40
82.0
 40
83.0
 40
83.0
 40
83.0
 40
84.0
 40
84.0
 40
84.0
 40
85.0
 40
85.0
 40
85.0
 40
86.0
 40
86.0
 40
86.0
 40
87.0
 40
87.0
 40
87.0
 40
88.0
 40
88.0
 40
88.0
 40
89.0
 40
89.0
 40
89.0
 40
90.0
 40
90.0
 40
90.0
 40
91.0
 40
91.0
 40
91.0
 40
92.0
 40
92.0
 40
92.0
 40
93.0
 40
93.0
 40
93.0
 40
94.0
 40
94.0
 40
94.0
 40
94.0
 10
330.4429865679995
 20
-124.2645442983266
 10
330.3503908706613
 20
-121.8258664249443
 10
330.2088213136904
 20
-119.3876020614673
 10
330.0299172839461
 20
-116.952410461227
 10
329.920498677604
 20
-115.437138132426
 10
329.8314664775089
 20
-113.1362404623958
 10
328.8117428005049
 20
-113.0520233518475
 10
327.5750562407811
 20
-112.9489995529086
 10
326.9997703528681
 20
-111.7902982193258
 10
326.3443018306248
 20
-110.7381760888892
 10
326.0831977099986
 20
-110.3226810070795
 10
326.2999727403832
 20
-109.8670969890415
 10
326.7438884437542
 20
-109.8571811680865
 10
327.0234167423386
 20
-109.85156114701
 10
327.3061953630081
 20
-109.8551689208072
 10
327.5798556877325
 20
-109.9535705072517
 10
328.4661399435508
 20
-110.2702222138435
 10
329.0644076147158
 20
-111.0772248697019
 10
329.6276014043789
 20
-111.9530569003719
 10
329.8093357961666
 20
-112.2348332935621
 10
330.0022670221239
 20
-112.1542216472947
 10
330.0727329395357
 20
-111.8028210351989
 10
329.9880518970376
 20
-110.2722502407756
 10
329.8989534786441
 20
-109.8449227442563
 10
329.8180832187297
 20
-108.3866248853929
 10
329.8071389260346
 20
-108.2299193635947
 10
329.8795198049854
 20
-107.764943042908
 10
329.7677841374406
 20
-107.6841048562339
 10
329.2371595252316
 20
-107.2945275501605
 10
328.9601166745708
 20
-106.8586957752071
 10
328.3158472497523
 20
-106.7631877946343
 10
327.0652258565825
 20
-106.5768441793023
 10
326.3379395578416
 20
-105.4774912279973
 10
325.5934109543511
 20
-104.4163202016612
 10
325.4062356869377
 20
-104.151450660698
 10
325.3651273427024
 20
-103.7851529742083
 10
325.3863605997775
 20
-103.4440522246261
 10
325.4234419687496
 20
-102.9639042829654
 10
325.5931094631068
 20
-102.7603433588907
 10
326.0022028662718
 20
-102.7967065051913
 10
326.63503573064
 20
-102.8588976397463
 10
327.2772461826314
 20
-102.9564087496993
 10
327.7898358042091
 20
-103.483041486464
 10
328.3134789544139
 20
-104.0207561226028
 10
328.831265383771
 20
-104.5746963826731
 10
329.2705259284303
 20
-105.2432765301695
 10
329.4365566749158
 20
-105.4875885357977
 10
329.3085039498557
 20
-105.4144271035304
 10
329.6123891990228
 20
-105.5494398597374
 10
329.5423134568901
 20
-104.42331937494
 10
329.3265652739944
 20
-103.5578164405654
 10
329.2612319319334
 20
-102.5122114793139
 10
329.155396454967
 20
-101.0690453559909
 10
328.9607196044894
 20
-100.3534186901032
 10
327.9720395699581
 20
-99.76434537588374
 10
327.446450605445
 20
-99.45300965826682
 10
326.8970204315348
 20
-99.23676972301281
 10
326.3558301177708
 20
-98.99339077477049
 10
325.7869614825375
 20
-98.73767755696666
 10
325.2397312206111
 20
-98.42242438479404
 10
324.7644021967169
 20
-97.9385376780667
 10
324.4544430090796
 20
-97.62345454997374
 10
324.1747240985928
 20
-97.26289345486756
 10
324.2437230575675
 20
-96.69252892147888
 10
324.3171207799044
 20
-96.07393031151998
 10
324.7261381173891
 20
-95.88077908921794
 10
325.0982083581176
 20
-95.64801717263781
 10
325.2853231570536
 20
-95.53065795724172
 10
325.4737594334944
 20
-95.56944073300707
 10
325.6667667079511
 20
-95.59805151979402
 10
326.3532371706594
 20
-95.69695667458656
 10
326.8612534747538
 20
-96.21484553880495
 10
327.3560850193188
 20
-96.77209884084234
 10
327.9592485402559
 20
-97.45601875949372
 10
328.3408787150624
 20
-97.50717735551999
 10
328.9283931131605
 20
-98.43719692552129
 10
328.7638678645027
 20
-97.39391574921759
 10
328.7602351469514
 20
-97.27257756933338
 10
328.7055573586844
 20
-96.49270065996969
 10
328.6507932330323
 20
-95.75735543269123
 10
328.2108440893706
 20
-94.46265072660153
 10
328.1679003932238
 20
-94.38648336652692
 10
327.5017519489889
 20
-93.21847577362353
 10
326.6802839123203
 20
-92.32594780417915
 10
325.5500547075226
 20
-92.02106723034619
 10
325.2665701784569
 20
-91.94467582840742
 10
324.9912678039251
 20
-91.81945813792726
 10
324.7134509869295
 20
-91.71174354591148
 10
324.1130606635437
 20
-91.48331029743017
 10
323.6315090859944
 20
-91.00428300184562
 10
323.1802228899375
 20
-90.49306025370661
 10
322.7084460593943
 20
-89.96762414149145
 10
322.8654858204876
 20
-89.26147266817546
 10
323.4768950590612
 20
-89.04045775671731
 10
323.7316513462138
 20
-88.94877356953537
 10
323.9985928787001
 20
-88.91329909573121
 10
324.2703558479671
 20
-88.95593623016862
 10
324.8954403368708
 20
-89.05412829087421
 10
325.4393782350288
 20
-89.38566910441259
 10
325.9004807142376
 20
-89.93967638031119
 10
326.68289422116
 20
-90.88923972695955
 10
327.3952239748583
 20
-91.93072997198305
 10
328.0237890922079
 20
-93.0568179169755
 10
328.1699052790839
 20
-93.31753924699617
 10
328.2511502717322
 20
-92.21644418274308
 10
328.1229645082226
 20
-91.58645513915248
 10
327.9812194296356
 20
-90.87371725784786
 10
328.0857616730243
 20
-90.35906027109117
 10
327.5751252007958
 20
-89.80450472010915
 10
326.8215206218835
 20
-88.98257069028124
 10
326.0449336861431
 20
-88.23962659084159
 10
325.1650389083462
 20
-87.6738871906889
 10
324.6087556825541
 20
-87.30757026721262
 10
324.1295704047796
 20
-86.82817743288234
 10
323.7543025597688
 20
-86.19694031636639
 10
323.5671054544291
 20
-85.88337031847657
 10
323.5083191457055
 20
-85.23453817761648
 10
323.6556814759384
 20
-84.92876073460402
 10
323.8284041902452
 20
-84.56929025820079
 10
324.1063398481029
 20
-84.66912802961275
 10
324.3770554133051
 20
-84.70593993366085
 10
324.9904993556162
 20
-84.7920148102642
 10
325.5135865851307
 20
-85.14526570076037
 10
325.9378917768534
 20
-85.72477430120819
 10
326.2532029552856
 20
-86.14573336996121
 10
326.5318094071676
 20
-86.62878499030671
 10
327.0339185035351
 20
-87.06012604363328
 10
326.750994802419
 20
-85.87598530315643
 10
326.3138627271177
 20
-84.98391776608007
 10
325.7519188421503
 20
-84.20867044583543
 10
325.4994032650178
 20
-83.84615899399362
 10
325.2452511915592
 20
-83.48099612871383
 10
325.0661834839664
 20
-83.07653570994473
 10
324.7114023198005
 20
-82.31767974589256
 10
324.5001555723186
 20
-81.55732219739345
 10
324.8103790408273
 20
-80.74926442183153
 10
325.1529397012889
 20
-79.86250326682256
 10
325.7657583393736
 20
-79.79638985050652
 10
326.3405423856679
 20
-80.71256585809027
 10
326.6544824680186
 20
-81.250068375435
 10
326.8824924806893
 20
-81.84437726144727
 10
327.000711646249
 20
-82.48117853907256
 10
327.2335784439647
 20
-83.58975376809841
 10
327.4617773709082
 20
-84.6961613916965
 10
327.5777613647313
 20
-85.97228170604276
 10
327.7606186480753
 20
-85.56043745142043
 10
327.7169287973048
 20
-85.26283417764791
 10
327.7599288734854
 20
-84.99206345493048
 10
327.9316506304122
 20
-83.89249907938653
 10
327.9898848617869
 20
-82.74569571663812
 10
328.5836638427224
 20
-81.86408636928119
 10
328.7904705775224
 20
-81.56123220668382
 10
328.9941795590672
 20
-81.20605267780062
 10
329.3732942142711
 20
-81.39796504820928
 10
329.7354886892883
 20
-81.5826914140713
 10
329.7314664599503
 20
-82.05833040751628
 10
329.7348447394895
 20
-82.43242889980271
 10
329.7435557550009
 20
-83.21353606454593
 10
329.7109598977952
 20
-83.9832106383484
 10
329.5838596045207
 20
-84.73236937618235
 10
329.3875733682301
 20
-85.95296081555089
 10
329.0016096240009
 20
-87.06530666746953
 10
328.5491658997722
 20
-88.14034427829914
 10
328.3974798086135
 20
-88.498661706905
 10
328.2352639318302
 20
-88.8682890475734
 10
328.3069476964812
 20
-89.29744476052205
 10
328.4637304482928
 20
-90.18172426666174
 10
328.615684544594
 20
-91.06897832381761
 10
328.9166413728544
 20
-91.90281382742
 10
328.9762631565328
 20
-91.86692213785217
 10
329.0092390454461
 20
-91.86081863718953
 10
329.0146514194802
 20
-91.84121387068143
 10
329.045547150525
 20
-91.72507932545698
 10
329.0850699875504
 20
-91.60803918165365
 10
329.093727537917
 20
-91.48703883917457
 10
329.2137956636033
 20
-89.87570033394444
 10
329.7595120314711
 20
-88.53029512164013
 10
330.4629883001005
 20
-87.26306015296543
 10
330.8064908371827
 20
-86.64645509917368
 10
331.0716894624008
 20
-86.65815991526356
 10
331.4096352645497
 20
-87.33442367773998
 10
331.933280639701
 20
-88.38805534685119
 10
331.8423689114871
 20
-89.46181121760758
 10
331.428371286003
 20
-90.46391096489497
 10
331.0036564507468
 20
-91.50551424416985
 10
330.4362390518191
 20
-92.44039792102269
 10
329.696459997688
 20
-93.12095193647104
 10
329.2770791976014
 20
-93.50539431207513
 10
329.1610971108321
 20
-93.99561067393243
 10
329.2177979375019
 20
-94.60058053572726
 10
329.2177979375019
 20
-94.60058053572726
 10
329.4315522278438
 20
-96.67881556411188
 10
329.4315522278438
 20
-96.67881556411188
 10
329.4763971524722
 20
-97.10112162374208
 10
329.4581191248603
 20
-97.54826666108032
 10
329.6494260266828
 20
-98.01979208479698
 10
329.8636973792639
 20
-97.72891589781595
 10
329.951094240871
 20
-97.4381558086557
 10
330.0531521782298
 20
-97.16036639893921
 10
330.509067947619
 20
-95.92885010274784
 10
331.0781747126551
 20
-94.84947316419248
 10
332.0312051410756
 20
-94.18566674998947
 10
332.7158265584955
 20
-93.70778859022207
 10
333.1600539845405
 20
-93.99546776237015
 10
333.2306999533467
 20
-95.0252961177947
 10
333.2741129413739
 20
-95.6964598494145
 10
333.1601480804725
 20
-96.31293864537134
 10
332.7923995448625
 20
-96.80516204201364
 10
332.1063651713999
 20
-97.71705802132835
 10
331.4260408787756
 20
-98.63419873002692
 10
330.6500763495471
 20
-99.41278044906134
 10
330.2524714494743
 20
-99.81221607002206
 10
329.8359620234839
 20
-100.2565666335403
 10
329.8506930920221
 20
-100.9380549071124
 10
329.8812134117157
 20
-102.1056022817487
 10
330.052947303763
 20
-103.262455295592
 10
330.156342261595
 20
-104.5694304596919
 10
330.5089464044236
 20
-104.2012051498134
 10
330.5261877106933
 20
-103.856481222199
 10
330.5907530199269
 20
-103.5476140138514
 10
330.9443004178828
 20
-102.0493327646941
 10
331.4223224105794
 20
-100.7051052637685
 10
332.3895972184061
 20
-99.79842136167835
 10
332.6399339648775
 20
-99.55647839688879
 10
332.8787208311322
 20
-99.35392686881815
 10
333.1806598893348
 20
-99.5736100238358
 10
333.4892747987313
 20
-99.80539300071205
 10
333.4772354942415
 20
-100.18017255807
 10
333.4320894225815
 20
-100.6014785808124
 10
333.2908925529223
 20
-102.050253455025
 10
332.8331128461234
 20
-103.2489931282435
 10
332.0647012987724
 20
-104.1924375177281
 10
331.6373283824804
 20
-104.7191785507147
 10
331.2723389789972
 20
-105.3145179562972
 10
330.8545082896005
 20
-105.8540186918302
 10
330.4706005412437
 20
-106.3525277703871
 10
330.3585885025887
 20
-106.879000396428
 10
330.4237248790176
 20
-107.5462182042909
 10
330.5404932608781
 20
-108.6465512054648
 10
330.5895328371528
 20
-109.7669912218414
 10
330.658012230078
 20
-110.8798622507399
 10
330.6851795840557
 20
-111.2816343112598
 10
330.7117257672043
 20
-111.6837585825564
 10
330.7449405828001
 20
-112.1790688349812
 10
331.0314669205841
 20
-111.8713467347626
 10
331.0774440952279
 20
-111.5271535567615
 10
331.1562246961367
 20
-111.2359617628332
 10
331.5128907548477
 20
-109.9195818622172
 10
332.1062867350267
 20
-108.7875703682575
 10
332.745504464962
 20
-107.6784233867665
 10
332.9508690364006
 20
-107.3218466113974
 10
333.1974564626323
 20
-107.0401499705899
 10
333.4695304970782
 20
-106.7874643156858
 10
333.7003050744589
 20
-106.5732601382061
 10
333.914885928057
 20
-106.5328129824031
 10
334.141396885887
 20
-106.6912941911793
 10
334.3893010713945
 20
-106.863950282832
 10
334.3758472883605
 20
-107.1731220737586
 10
334.3631114511157
 20
-107.5225313487095
 10
334.3084550744905
 20
-108.8872348464365
 10
333.8780136135794
 20
-110.0368913738764
 10
333.1434102502385
 20
-111.0201362666671
 10
333.1434102502385
 20
-111.0201362666671
 10
332.0547105854684
 20
-112.4488607766112
 10
332.0547105854684
 20
-112.4488607766112
 10
331.3250809006348
 20
-113.4050363505368
 10
330.8963190878931
 20
-114.4616616219184
 10
331.0391163442485
 20
-115.8053910842216
 10
331.155822528931
 20
-116.897580150394
 10
331.1785809813191
 20
-118.0214665372967
 10
331.2809485419097
 20
-119.1174003502126
 10
331.4864295216764
 20
-121.2404533340847
 10
331.3559797900517
 20
-123.4615489195935
 10
331.8261212125818
 20
-125.454836584016
 10
331.8738150674223
 20
-125.6563083988307
 10
331.8717874072784
 20
-125.9136756588882
 10
331.6504610414116
 20
-125.9918402538696
 10
331.3715629139571
 20
-126.0903133186048
 10
330.7037957247954
 20
-126.8376522065633
 10
330.6711004071179
 20
-126.5889024977715
 10
330.5620156745959
 20
-125.8304681101957
 10
330.4790680553358
 20
-125.0507649870922
 10
330.4429865679995
 20
-124.2645442983266
 97
        1
330
7D
 92
        1
 93
        1
 72
     4
 94
        3
 73
     0
 74
     0
 95
       17
 96
       13
 40
0.0
 40
0.0
 40
0.0
 40
0.0
 40
1.0
 40
1.0
 40
1.0
 40
2.0
 40
2.0
 40
2.0
 40
3.0
 40
3.0
 40
3.0
 40
4.0
 40
4.0
 40
4.0
 40
4.0
 10
247.8936374926264
 20
-120.7493912056708
 10
248.5202498041637
 20
-120.3644572450562
 10
249.3401399297501
 20
-120.5605293169008
 10
249.7249491467163
 20
-121.1869420386005
 10
250.1098581585962
 20
-121.8135294014114
 10
249.9140106253276
 20
-122.6332947833465
 10
249.2873983137897
 20
-123.0182287439627
 10
248.6608109509708
 20
-123.4031377558471
 10
247.8410455690358
 20
-123.2072652738458
 10
247.4561365571558
 20
-122.5806529623037
 10
247.0713273401974
 20
-121.9542901380644
 10
247.2670501298107
 20
-121.1343002175539
 10
247.8936374926264
 20
-120.7493912056708
 97
        1
330
7E
 92
        1
 93
        1
 72
     4
 94
        3
 73
     0
 74
     0
 95
       17
 96
       13
 40
0.0
 40
0.0
 40
0.0
 40
0.0
 40
1.0
 40
1.0
 40
1.0
 40
2.0
 40
2.0
 40
2.0
 40
3.0
 40
3.0
 40
3.0
 40
4.0
 40
4.0
 40
4.0
 40
4.0
 10
249.6810892787581
 20
-115.6417623841781
 10
250.3839698589881
 20
-115.209974707961
 10
251.3039043932876
 20
-115.4295983812573
 10
251.7358417618875
 20
-116.1327035000611
 10
252.1676294381003
 20
-116.8355840802933
 10
251.9478061749658
 20
-117.7556433582474
 10
251.2449006460073
 20
-118.1874310344628
 10
250.542020065776
 20
-118.6192187106808
 10
249.6219607878194
 20
-118.3993954475412
 10
249.1901481628683
 20
-117.6965148673106
 10
248.7582357430066
 20
-116.9934097485062
 10
248.9782086985282
 20
-116.0735251116668
 10
249.6810892787581
 20
-115.6417623841781
 97
        1
330
7F
 92
        1
 93
        1
 72
     4
 94
        3
 73
     0
 74
     0
 95
       17
 96
       13
 40
0.0
 40
0.0
 40
0.0
 40
0.0
 40
1.0
 40
1.0
 40
1.0
 40
2.0
 40
2.0
 40
2.0
 40
3.0
 40
3.0
 40
3.0
 40
4.0
 40
4.0
 40
4.0
 40
4.0
 10
252.0283656252752
 20
-110.8427992546111
 10
252.7568186541175
 20
-110.3952938782751
 10
253.710134589627
 20
-110.6232753762353
 10
254.1576150172466
 20
-111.3517284050828
 10
254.6049707011949
 20
-112.0799818440812
 10
254.3773883829162
 20
-113.0333476770553
 10
253.6489353540745
 20
-113.4808530533939
 10
252.9204573765048
 20
-113.9283334810035
 10
251.9671913384493
 20
-113.700376931769
 10
251.5198107057628
 20
-112.9721234927709
 10
251.0723302781541
 20
-112.2436704639257
 10
251.2999125964341
 20
-111.2902796822207
 10
252.0283656252752
 20
-110.8427992546111
 97
        1
330
80
 92
        1
 93
        1
 72
     4
 94
        3
 73
     0
 74
     0
 95
       17
 96
       13
 40
0.0
 40
0.0
 40
0.0
 40
0.0
 40
1.0
 40
1.0
 40
1.0
 40
2.0
 40
2.0
 40
2.0
 40
3.0
 40
3.0
 40
3.0
 40
4.0
 40
4.0
 40
4.0
 40
4.0
 10
254.4981402378227
 20
-106.1170107511708
 10
255.2020936134624
 20
-105.684574407965
 10
256.1234252766628
 20
-105.9045224147547
 10
256.5560113122586
 20
-106.6086753802358
 10
256.988422706729
 20
-107.3126038071402
 10
256.7682501613632
 20
-108.2340352652653
 10
256.0642967857337
 20
-108.6664716084692
 10
255.360368358822
 20
-109.0989079516776
 10
254.4389618494274
 20
-108.8787603550442
 10
254.0065255062194
 20
-108.1748069794051
 10
253.5739644193625
 20
-107.4706540139275
 10
253.7942118109206
 20
-106.5494470943763
 10
254.4981402378227
 20
-106.1170107511708
 97
        1
330
81
 92
        1
 93
        1
 72
     4
 94
        3
 73
     0
 74
     0
 95
       17
 96
       13
 40
0.0
 40
0.0
 40
0.0
 40
0.0
 40
1.0
 40
1.0
 40
1.0
 40
2.0
 40
2.0
 40
2.0
 40
3.0
 40
3.0
 40
3.0
 40
4.0
 40
4.0
 40
4.0
 40
4.0
 10
257.4136239181379
 20
-101.904816810773
 10
258.0417082047721
 20
-101.5189846958662
 10
258.8638686648122
 20
-101.7154060499361
 10
259.2496758309971
 20
-102.3434653878369
 10
259.6355328946265
 20
-102.9715496744703
 10
259.4389368994521
 20
-103.7935105446789
 10
258.8108526128185
 20
-104.1793177108526
 10
258.1827932749122
 20
-104.5651498257604
 10
257.3609571483633
 20
-104.3688282666164
 10
256.9751250334517
 20
-103.7407190312497
 10
256.5893178672776
 20
-103.1126596933492
 10
256.7855645802322
 20
-102.2906239769522
 10
257.4136239181379
 20
-101.904816810773
 97
        1
330
82
 92
        1
 93
        1
 72
     4
 94
        3
 73
     0
 74
     0
 95
       17
 96
       13
 40
0.0
 40
0.0
 40
0.0
 40
0.0
 40
1.0
 40
1.0
 40
1.0
 40
2.0
 40
2.0
 40
2.0
 40
3.0
 40
3.0
 40
3.0
 40
4.0
 40
4.0
 40
4.0
 40
4.0
 10
261.0659434006863
 20
-97.69873530931157
 10
261.7898058631424
 20
-97.56915160386
 10
262.4815094121744
 20
-98.05103633062421
 10
262.6110681688929
 20
-98.77467425451254
 10
262.740626925617
 20
-99.49853671697022
 10
262.2589916861589
 20
-100.1902153172717
 10
261.5351042749652
 20
-100.3197990227235
 10
260.8112168637779
 20
-100.4493827281764
 10
260.1195881609382
 20
-99.96772253998669
 10
259.990004455486
 20
-99.24383512879558
 10
259.8604706474904
 20
-98.5201972049127
 10
260.3420559894894
 20
-97.8282940660361
 10
261.0659434006863
 20
-97.69873530931157
 97
        1
330
83
 92
        1
 93
        1
 72
     4
 94
        3
 73
     0
 74
     0
 95
       17
 96
       13
 40
0.0
 40
0.0
 40
0.0
 40
0.0
 40
1.0
 40
1.0
 40
1.0
 40
2.0
 40
2.0
 40
2.0
 40
3.0
 40
3.0
 40
3.0
 40
4.0
 40
4.0
 40
4.0
 40
4.0
 10
264.8574019524111
 20
-93.42940877640947
 10
265.6694082792006
 20
-93.28405747337402
 10
266.4456880241342
 20
-93.82439707535313
 10
266.5910642759038
 20
-94.6366528894512
 10
266.7364405276617
 20
-95.44865921624811
 10
266.195851438383
 20
-96.22496390990717
 10
265.3838451115839
 20
-96.37031521294357
 10
264.5718138360574
 20
-96.51566651597933
 10
263.7955340911328
 20
-95.97507742669519
 10
263.6501827880918
 20
-95.16307109989702
 10
263.504781587595
 20
-94.35081528579862
 10
264.045395625612
 20
-93.57476007944523
 10
264.8574019524111
 20
-93.42940877640947
 97
        1
330
84
 92
        1
 93
        1
 72
     4
 94
        3
 73
     0
 74
     0
 95
       17
 96
       13
 40
0.0
 40
0.0
 40
0.0
 40
0.0
 40
1.0
 40
1.0
 40
1.0
 40
2.0
 40
2.0
 40
2.0
 40
3.0
 40
3.0
 40
3.0
 40
4.0
 40
4.0
 40
4.0
 40
4.0
 10
269.3498699295937
 20
-89.68647550521909
 10
270.1914654505847
 20
-89.53583507134466
 10
270.9957127222377
 20
-90.09613365760989
 10
271.1463531561128
 20
-90.93765433241314
 10
271.2969436925223
 20
-91.77897541737182
 10
270.7369694397485
 20
-92.58344722760185
 10
269.8953988674849
 20
-92.73408766147115
 10
269.0538781926886
 20
-92.88472809534525
 10
268.2496059722961
 20
-92.324454457808
 10
268.0990154358879
 20
-91.48313337284868
 10
267.9483750020135
 20
-90.64161269804605
 10
268.5083492547853
 20
-89.8371159390887
 10
269.3498699295937
 20
-89.68647550521909
 97
        1
330
85
 92
        1
 93
        1
 72
     4
 94
        3
 73
     0
 74
     0
 95
       17
 96
       13
 40
0.0
 40
0.0
 40
0.0
 40
0.0
 40
1.0
 40
1.0
 40
1.0
 40
2.0
 40
2.0
 40
2.0
 40
3.0
 40
3.0
 40
3.0
 40
4.0
 40
4.0
 40
4.0
 40
4.0
 10
274.0229667145286
 20
-86.64180729914347
 10
274.8361955291066
 20
-86.49625640626439
 10
275.6136229156314
 20
-87.03739436761678
 10
275.7592237059718
 20
-87.85087266950622
 10
275.9047995475843
 20
-88.66410148408711
 10
275.3634120989222
 20
-89.44152887061475
 10
274.550183284346
 20
-89.58710471222181
 10
273.7369544697616
 20
-89.73268055382886
 10
272.9595270832336
 20
-89.19129310517211
 10
272.8139512416301
 20
-88.37806429059153
 10
272.6683504512877
 20
-87.56461093743517
 10
273.2097378999429
 20
-86.78740808948329
 10
274.0229667145286
 20
-86.64180729914347
 97
        1
330
86
 92
        1
 93
        1
 72
     4
 94
        3
 73
     0
 74
     0
 95
       17
 96
       13
 40
0.0
 40
0.0
 40
0.0
 40
0.0
 40
1.0
 40
1.0
 40
1.0
 40
2.0
 40
2.0
 40
2.0
 40
3.0
 40
3.0
 40
3.0
 40
4.0
 40
4.0
 40
4.0
 40
4.0
 10
279.2099075498113
 20
-84.59513820464698
 10
279.935491474664
 20
-84.46523016569752
 10
280.6291909221304
 20
-84.94828748279298
 10
280.7590490636083
 20
-85.67384645891385
 10
280.8889321538249
 20
-86.39945533249516
 10
280.4058498880015
 20
-87.09288034392344
 10
279.6802659631558
 20
-87.2227634341398
 10
278.9546820383044
 20
-87.35264652435649
 10
278.2612570268765
 20
-86.86981374583742
 10
278.1313739366591
 20
-86.14420487225613
 10
278.0014908464418
 20
-85.41864589613494
 10
278.4843236249567
 20
-84.72502129486334
 10
279.2099075498113
 20
-84.59513820464698
 97
        1
330
87
 92
        1
 93
        1
 72
     4
 94
        3
 73
     0
 74
     0
 95
      170
 96
      166
 40
0.0
 40
0.0
 40
0.0
 40
0.0
 40
1.0
 40
1.0
 40
1.0
 40
2.0
 40
2.0
 40
2.0
 40
3.0
 40
3.0
 40
3.0
 40
4.0
 40
4.0
 40
4.0
 40
5.0
 40
5.0
 40
5.0
 40
6.0
 40
6.0
 40
6.0
 40
7.0
 40
7.0
 40
7.0
 40
8.0
 40
8.0
 40
8.0
 40
9.0
 40
9.0
 40
9.0
 40
10.0
 40
10.0
 40
10.0
 40
11.0
 40
11.0
 40
11.0
 40
12.0
 40
12.0
 40
12.0
 40
13.0
 40
13.0
 40
13.0
 40
14.0
 40
14.0
 40
14.0
 40
15.0
 40
15.0
 40
15.0
 40
16.0
 40
16.0
 40
16.0
 40
17.0
 40
17.0
 40
17.0
 40
18.0
 40
18.0
 40
18.0
 40
19.0
 40
19.0
 40
19.0
 40
20.0
 40
20.0
 40
20.0
 40
21.0
 40
21.0
 40
21.0
 40
22.0
 40
22.0
 40
22.0
 40
23.0
 40
23.0
 40
23.0
 40
24.0
 40
24.0
 40
24.0
 40
25.0
 40
25.0
 40
25.0
 40
26.0
 40
26.0
 40
26.0
 40
27.0
 40
27.0
 40
27.0
 40
28.0
 40
28.0
 40
28.0
 40
29.0
 40
29.0
 40
29.0
 40
30.0
 40
30.0
 40
30.0
 40
31.0
 40
31.0
 40
31.0
 40
32.0
 40
32.0
 40
32.0
 40
33.0
 40
33.0
 40
33.0
 40
34.0
 40
34.0
 40
34.0
 40
35.0
 40
35.0
 40
35.0
 40
36.0
 40
36.0
 40
36.0
 40
37.0
 40
37.0
 40
37.0
 40
38.0
 40
38.0
 40
38.0
 40
39.0
 40
39.0
 40
39.0
 40
40.0
 40
40.0
 40
40.0
 40
41.0
 40
41.0
 40
41.0
 40
42.0
 40
42.0
 40
42.0
 40
43.0
 40
43.0
 40
43.0
 40
44.0
 40
44.0
 40
44.0
 40
45.0
 40
45.0
 40
45.0
 40
46.0
 40
46.0
 40
46.0
 40
47.0
 40
47.0
 40
47.0
 40
48.0
 40
48.0
 40
48.0
 40
49.0
 40
49.0
 40
49.0
 40
50.0
 40
50.0
 40
50.0
 40
51.0
 40
51.0
 40
51.0
 40
52.0
 40
52.0
 40
52.0
 40
53.0
 40
53.0
 40
53.0
 40
54.0
 40
54.0
 40
54.0
 40
55.0
 40
55.0
 40
55.0
 40
55.0
 10
301.7222945888075
 20
-53.98045139371227
 10
301.7208475624442
 20
-53.98863457726662
 10
301.7190013563955
 20
-53.99674291463193
 10
301.7166561757445
 20
-54.00465166215425
 10
301.7140116103272
 20
-54.01390764111324
 10
301.712539635241
 20
-54.01660210399332
 10
301.7103940444266
 20
-54.02184133736835
 10
301.7083981460012
 20
-54.02658159613332
 10
301.7062525551926
 20
-54.03122205998065
 10
301.7039572719956
 20
-54.0358625238251
 10
301.6988178335414
 20
-54.0464158367645
 10
301.6957740884381
 20
-54.0505074285436
 10
301.6919070352328
 20
-54.0566448162108
 10
301.6884142129881
 20
-54.06198384450508
 10
301.68364900549
 20
-54.06926887376854
 10
301.680779901501
 20
-54.07253715744417
 10
301.6673075871093
 20
-54.0898765250405
 10
301.6554319914615
 20
-54.10212635164182
 10
301.6445792937572
 20
-54.11262976712015
 10
301.6335020574828
 20
-54.12340761863501
 10
301.6233728729583
 20
-54.13201493060331
 10
301.6130939960506
 20
-54.14087172988113
 10
301.5930102681204
 20
-54.15748758429582
 10
301.5736251046357
 20
-54.17210754028251
 10
301.5544145822589
 20
-54.18592913689787
 10
301.4780465186549
 20
-54.24029242033691
 10
301.4032003275925
 20
-54.28492569893617
 10
301.3274310335079
 20
-54.32848618213462
 10
301.1760670864582
 20
-54.41450940439125
 10
301.0229317795515
 20
-54.49170077610315
 10
300.8674013945328
 20
-54.56437642762135
 10
300.7118211120516
 20
-54.63675269437346
 10
300.5541700849522
 20
-54.70413921505588
 10
300.3920033376575
 20
-54.76426565520765
 10
300.3109199640114
 20
-54.79425402909257
 10
300.2285642051177
 20
-54.82224650454661
 10
300.1437135731853
 20
-54.84687090140831
 10
300.1012258853969
 20
-54.85904588181995
 10
300.0580645818847
 20
-54.87037260539919
 10
300.0134812007482
 20
-54.88017745642673
 10
300.0024788106569
 20
-54.88272222692168
 10
299.991127138349
 20
-54.88496761265534
 10
299.9797505173062
 20
-54.88718804965462
 10
299.9745112839382
 20
-54.88826084506246
 10
299.9675006907093
 20
-54.88945838411818
 10
299.9636835349619
 20
-54.89048128206207
 10
299.9636835349619
 20
-54.89048128206207
 10
299.9510844261351
 20
-54.893400283516
 10
299.9510844261351
 20
-54.893400283516
 10
299.9342440331462
 20
-54.897466926562
 10
299.9174784863522
 20
-54.90028613309251
 10
299.9001640674832
 20
-54.90637362329864
 10
299.7621975886291
 20
-54.94736438726842
 10
299.6198900307019
 20
-55.02981994108555
 10
299.4792041402357
 20
-55.11549388111532
 10
299.40475712887
 20
-55.16129975004233
 10
299.3281894754135
 20
-55.20975018438736
 10
299.2527694635602
 20
-55.25760184920599
 10
299.4544799484634
 20
-54.98154414785008
 10
299.3532380006891
 20
-54.56996494322161
 10
299.2577342609
 20
-54.3033129132095
 10
298.9654598848112
 20
-53.48733973828585
 10
297.98869214277
 20
-52.94585249470695
 10
297.266950322392
 20
-53.22006399001647
 10
296.9233314592367
 20
-53.35064564468394
 10
296.5230540294541
 20
-53.53574027517014
 10
296.3099419747826
 20
-54.13211472552545
 10
296.1225520611005
 20
-54.6563374477009
 10
296.070558907049
 20
-55.54034581029542
 10
296.6510160674363
 20
-55.85866666086714
 10
297.2314482790988
 20
-56.17696256271121
 10
296.7795519262131
 20
-56.61044675259046
 10
296.7795519262131
 20
-56.61044675259046
 10
296.7795519262131
 20
-56.61044675259046
 10
295.0766264385162
 20
-57.53641887963951
 10
295.0631541241283
 20
-57.54150842062941
 10
295.0496818097411
 20
-57.54659796162026
 10
294.8486698892884
 20
-57.49774834758827
 10
294.8991162220602
 20
-57.31991379763403
 10
295.0428708063559
 20
-57.18626344913584
 10
295.0979077055101
 20
-57.13584206509204
 10
295.1479548585958
 20
-56.96055228563307
 10
295.2710518941572
 20
-56.52714294194189
 10
295.2695549703424
 20
-56.09286039268971
 10
295.3123919403557
 20
-55.64954640304949
 10
295.3192278924682
 20
-55.59413527293666
 10
295.2986701386644
 20
-54.93531415050785
 10
295.2981462153219
 20
-54.87521265908566
 10
295.2871687739644
 20
-53.69591112403719
 10
296.0285452451357
 20
-52.65791919770677
 10
296.2109454127405
 20
-52.48387685476234
 10
296.3920731951035
 20
-52.30963492197972
 10
297.0221034827091
 20
-51.65697613594929
 10
298.4904859563544
 20
-51.95952938893711
 10
298.7205381989367
 20
-52.00695692533922
 10
299.0681987564098
 20
-52.14424978847041
 10
299.2435883307852
 20
-52.29838304458983
 10
299.7415899373585
 20
-52.7358340825984
 10
299.8137666142711
 20
-53.05003839266305
 10
300.1729285364294
 20
-53.32242863065574
 10
300.1844548498568
 20
-53.32642042751174
 10
300.8437001006995
 20
-53.80640905076975
 10
301.0014010252587
 20
-53.81396851606684
 10
301.0014010252587
 20
-53.81396851606684
 10
301.0605295161974
 20
-53.8165881327537
 10
301.0605295161974
 20
-53.8165881327537
 10
301.0801891157136
 20
-53.81711205608979
 10
301.0996491253861
 20
-53.81643844037178
 10
301.119183981256
 20
-53.81643844037178
 10
301.119183981256
 20
-53.81643844037178
 10
301.1778384463152
 20
-53.81598936322472
 10
301.1778384463152
 20
-53.81598936322472
 10
301.1778384463152
 20
-53.81598936322472
 10
301.2356446545459
 20
-53.81207241255968
 10
301.2356446545459
 20
-53.81207241255968
 10
301.2356446545459
 20
-53.81207241255968
 10
301.2934758115039
 20
-53.80813051316283
 10
301.2934758115039
 20
-53.80813051316283
 10
301.2934758115039
 20
-53.80813051316283
 10
301.3499347882895
 20
-53.79997227833966
 10
301.3499347882895
 20
-53.79997227833966
 10
301.3499347882895
 20
-53.79997227833966
 10
301.4076162528636
 20
-53.79166435113231
 10
301.4076162528636
 20
-53.79166435113231
 10
301.4312925979715
 20
-53.78762265681396
 10
301.4546446095798
 20
-53.78360591122806
 10
301.4820882129682
 20
-53.78121083311505
 10
301.4884501392064
 20
-53.78046237120319
 10
301.4957102197444
 20
-53.77996339659506
 10
301.5033445312296
 20
-53.77961411436982
 10
301.51092894526
 20
-53.77928978087704
 10
301.5176152049913
 20
-53.77876585753934
 10
301.5269460301413
 20
-53.77894049865148
 10
301.5361770603716
 20
-53.7792149346848
 10
301.5430379612192
 20
-53.77886565246117
 10
301.5551879929029
 20
-53.78018793516955
 10
301.5551879929029
 20
-53.78018793516955
 10
301.5717788985851
 20
-53.78208403867605
 10
301.5717788985851
 20
-53.78208403867605
 10
301.5779412349829
 20
-53.78295724423738
 10
301.5867730855279
 20
-53.7849531426673
 10
301.59408306352
 20
-53.7867743999806
 10
301.59408306352
 20
-53.7867743999806
 10
301.6054846332934
 20
-53.78991794000484
 10
301.6054846332934
 20
-53.78991794000484
 10
301.6108985077809
 20
-53.79173919732135
 10
301.6170608441811
 20
-53.79415922416715
 10
301.6226992572351
 20
-53.79665409720135
 10
301.6284624139482
 20
-53.79919886769694
 10
301.6341008270124
 20
-53.80196817676766
 10
301.6395645989539
 20
-53.80493707567752
 10
301.6436312420021
 20
-53.80678328172648
 10
301.654783324467
 20
-53.81439264448399
 10
301.6620184562758
 20
-53.8204052884966
 10
301.6700768961755
 20
-53.82691690712182
 10
301.6776363614774
 20
-53.83412709019335
 10
301.6843974673971
 20
-53.84171150421809
 10
301.691832189045
 20
-53.8502689187311
 10
301.7005143472068
 20
-53.86331710470438
 10
301.7066517348779
 20
-53.87556693130857
 10
301.7200242543404
 20
-53.90173814944803
 10
301.7239661537366
 20
-53.92536459709189
 10
301.7246647181877
 20
-53.95106178935664
 10
301.7248892567607
 20
-53.96538236057916
 10
301.7235669740506
 20
-53.97219336396439
 10
301.7222945888075
 20
-53.98045139371227
 97
        1
330
88
 92
        1
 93
        1
 72
     4
 94
        3
 73
     0
 74
     0
 95
       17
 96
       13
 40
0.0
 40
0.0
 40
0.0
 40
0.0
 40
1.0
 40
1.0
 40
1.0
 40
2.0
 40
2.0
 40
2.0
 40
3.0
 40
3.0
 40
3.0
 40
4.0
 40
4.0
 40
4.0
 40
4.0
 10
319.192218889988
 20
-14.02645686248332
 10
319.8188312015355
 20
-13.64152290186804
 10
320.6387213271188
 20
-13.8376199224423
 10
321.023530544081
 20
-14.46400769541146
 10
321.4084395559674
 20
-15.09059505822426
 10
321.2125920226982
 20
-15.91036044015867
 10
320.5859797111507
 20
-16.29531934950417
 10
319.9593923483414
 20
-16.68022836138731
 10
319.1396020176797
 20
-16.48433093065668
 10
318.7546930057889
 20
-15.85774356784485
 10
318.369908737559
 20
-15.23135579487505
 10
318.5656315271775
 20
-14.41136587436775
 10
319.192218889988
 20
-14.02645686248332
 97
        1
330
89
 92
        1
 93
        1
 72
     4
 94
        3
 73
     0
 74
     0
 95
       17
 96
       13
 40
0.0
 40
0.0
 40
0.0
 40
0.0
 40
1.0
 40
1.0
 40
1.0
 40
2.0
 40
2.0
 40
2.0
 40
3.0
 40
3.0
 40
3.0
 40
4.0
 40
4.0
 40
4.0
 40
4.0
 10
320.9796706761197
 20
-8.918828040991233
 10
321.6825512563528
 20
-8.487040364773566
 10
322.6024857906575
 20
-8.706664038069872
 10
323.0344231592523
 20
-9.409744208143772
 10
323.4662108354709
 20
-10.11264973710617
 10
323.246362623602
 20
-11.0327090150593
 10
322.5434820433688
 20
-11.46452164000685
 10
321.8406014631389
 20
-11.89628436749367
 10
320.920517236453
 20
-11.67646110435533
 10
320.4887295602402
 20
-10.9735805241225
 10
320.056817140367
 20
-10.27047540531903
 10
320.2767651471618
 20
-9.350615717207936
 10
320.9796706761197
 20
-8.918828040991233
 97
        1
330
8A
 92
        1
 93
        1
 72
     4
 94
        3
 73
     0
 74
     0
 95
       17
 96
       13
 40
0.0
 40
0.0
 40
0.0
 40
0.0
 40
1.0
 40
1.0
 40
1.0
 40
2.0
 40
2.0
 40
2.0
 40
3.0
 40
3.0
 40
3.0
 40
4.0
 40
4.0
 40
4.0
 40
4.0
 10
323.3269470226407
 20
-4.119864911424917
 10
324.0554000514881
 20
-3.672359535084425
 10
325.0086910382715
 20
-3.900341033050107
 10
325.4561964146082
 20
-4.62879406189213
 10
325.9035520985668
 20
-5.357047500891803
 10
325.6759697802868
 20
-6.310413333866867
 10
324.947491802712
 20
-6.757918710208001
 10
324.2190387738683
 20
-7.205399137816355
 10
323.2657477870842
 20
-6.977442588582491
 10
322.8183921031269
 20
-6.249189149581856
 10
322.3709116755189
 20
-5.520761069468121
 10
322.5984690450677
 20
-4.567345339033592
 10
323.3269470226407
 20
-4.119864911424917
 97
        1
330
8B
 92
        1
 93
        1
 72
     4
 94
        3
 73
     0
 74
     0
 95
       17
 96
       13
 40
0.0
 40
0.0
 40
0.0
 40
0.0
 40
1.0
 40
1.0
 40
1.0
 40
2.0
 40
2.0
 40
2.0
 40
3.0
 40
3.0
 40
3.0
 40
4.0
 40
4.0
 40
4.0
 40
4.0
 10
326.2043838891628
 20
0.3207097066226218
 10
326.9083123160649
 20
0.7531460498303347
 10
327.8296439792654
 20
0.5332229917695394
 10
328.2622050661235
 20
-0.1709549224414609
 10
328.6946414093316
 20
-0.8748833493480788
 10
328.4744688639664
 20
-1.796314807470331
 10
327.7705154883305
 20
-2.228751150676118
 10
327.0665870614251
 20
-2.661187493881906
 10
326.1451556033025
 20
-2.441039897249509
 10
325.7127442088263
 20
-1.73711147034257
 10
325.280158173237
 20
-1.032933556131891
 10
325.5004305135237
 20
-0.1117016878526315
 10
326.2043838891628
 20
0.3207097066226218
 97
        1
330
8C
 92
        1
 93
        1
 72
     4
 94
        3
 73
     0
 74
     0
 95
       17
 96
       13
 40
0.0
 40
0.0
 40
0.0
 40
0.0
 40
1.0
 40
1.0
 40
1.0
 40
2.0
 40
2.0
 40
2.0
 40
3.0
 40
3.0
 40
3.0
 40
4.0
 40
4.0
 40
4.0
 40
4.0
 10
329.584911903245
 20
4.349330889082709
 10
330.2129961898773
 20
4.735187952722633
 10
331.0351566499296
 20
4.538741649923779
 10
331.4209887648316
 20
3.910657363290144
 10
331.8067959310095
 20
3.282598025385439
 10
331.6102498332897
 20
2.460662103909927
 10
330.9821405979243
 20
2.074805040273854
 10
330.3540812600231
 20
1.688997874095961
 10
329.5322700821977
 20
1.885344381972678
 10
329.1464379672957
 20
2.513428668605992
 10
328.7606058523834
 20
3.141488006511338
 10
328.9568276166101
 20
3.963498774175887
 10
329.584911903245
 20
4.349330889082709
 97
        1
330
8D
 92
        1
 93
        1
 72
     4
 94
        3
 73
     0
 74
     0
 95
       17
 96
       13
 40
0.0
 40
0.0
 40
0.0
 40
0.0
 40
1.0
 40
1.0
 40
1.0
 40
2.0
 40
2.0
 40
2.0
 40
3.0
 40
3.0
 40
3.0
 40
4.0
 40
4.0
 40
4.0
 40
4.0
 10
336.4911695420696
 20
-34.27008120937761
 10
337.1925531984758
 20
-34.04337209666245
 10
337.9448322648059
 20
-34.42813141616495
 10
338.1715413775231
 20
-35.12954002130459
 10
338.398225541509
 20
-35.83089872898476
 10
338.0135410681962
 20
-36.58340233388846
 10
337.3121324630575
 20
-36.81011144660458
 10
336.6107488066455
 20
-37.03682055932134
 10
335.8581703555509
 20
-36.6518865987051
 10
335.6314861915649
 20
-35.95050294229696
 10
335.404752130123
 20
-35.24911928588593
 10
335.7897858856544
 20
-34.49679032209662
 10
336.4911695420696
 20
-34.27008120937761
 97
        1
330
8E
 92
        1
 93
        1
 72
     4
 94
        3
 73
     0
 74
     0
 95
       17
 96
       13
 40
0.0
 40
0.0
 40
0.0
 40
0.0
 40
1.0
 40
1.0
 40
1.0
 40
2.0
 40
2.0
 40
2.0
 40
3.0
 40
3.0
 40
3.0
 40
4.0
 40
4.0
 40
4.0
 40
4.0
 10
340.6277438807631
 20
-30.84604260955964
 10
341.4138534254516
 20
-30.59193979091397
 10
342.2572951524926
 20
-31.0233532361778
 10
342.5113979711344
 20
-31.80946278086567
 10
342.7655506872412
 20
-32.59582181285632
 10
342.3340623957864
 20
-33.43903900132407
 10
341.5479528510972
 20
-33.69311687123888
 10
340.7618433064131
 20
-33.94719474115241
 10
339.9184764255613
 20
-33.51603078319201
 10
339.6642987607265
 20
-32.72967175120136
 10
339.4102208908127
 20
-31.94356220651252
 10
339.8416343360778
 20
-31.10012047947285
 10
340.6277438807631
 20
-30.84604260955964
 97
        1
330
8F
 92
        1
 93
        1
 72
     4
 94
        3
 73
     0
 74
     0
 95
       17
 96
       13
 40
0.0
 40
0.0
 40
0.0
 40
0.0
 40
1.0
 40
1.0
 40
1.0
 40
2.0
 40
2.0
 40
2.0
 40
3.0
 40
3.0
 40
3.0
 40
4.0
 40
4.0
 40
4.0
 40
4.0
 10
344.4399348274144
 20
-27.11109293208031
 10
345.2534380780296
 20
-26.84815826289249
 10
346.1259700246588
 20
-27.29464074128716
 10
346.3888547963891
 20
-28.10789450460052
 10
346.6517645168467
 20
-28.92137280648516
 10
346.2056063719467
 20
-29.79412929169141
 10
345.3921280700627
 20
-30.0570639608802
 10
344.5786248194444
 20
-30.31999863006769
 10
343.7060429753547
 20
-29.87346625421259
 10
343.4431083061634
 20
-29.05998795232763
 10
343.1802734318948
 20
-28.24675913774417
 10
343.626431576798
 20
-27.37400265254112
 10
344.4399348274144
 20
-27.11109293208031
 97
        1
330
90
 92
        1
 93
        1
 72
     4
 94
        3
 73
     0
 74
     0
 95
       17
 96
       13
 40
0.0
 40
0.0
 40
0.0
 40
0.0
 40
1.0
 40
1.0
 40
1.0
 40
2.0
 40
2.0
 40
2.0
 40
3.0
 40
3.0
 40
3.0
 40
4.0
 40
4.0
 40
4.0
 40
4.0
 10
347.8868264642358
 20
-23.10480086328656
 10
348.6717634186001
 20
-22.85109722432816
 10
349.5139577091201
 20
-23.28186200260129
 10
349.7676613480779
 20
-24.06679895696335
 10
350.0214398332273
 20
-24.85198539862915
 10
349.5906002087651
 20
-25.69393020184766
 10
348.8056632544001
 20
-25.94763384080573
 10
348.0207512487715
 20
-26.20133747976381
 10
347.1786318044379
 20
-25.77082218879506
 10
346.924828370558
 20
-24.98563574712959
 10
346.6711496803308
 20
-24.2007237414971
 10
347.1018895098735
 20
-23.35850450224496
 10
347.8868264642358
 20
-23.10480086328656
 97
        1
330
91
 92
        1
 93
        1
 72
     4
 94
        3
 73
     0
 74
     0
 95
       17
 96
       13
 40
0.0
 40
0.0
 40
0.0
 40
0.0
 40
1.0
 40
1.0
 40
1.0
 40
2.0
 40
2.0
 40
2.0
 40
3.0
 40
3.0
 40
3.0
 40
4.0
 40
4.0
 40
4.0
 40
4.0
 10
350.9291494896547
 20
-18.87244834876448
 10
351.6288865298636
 20
-18.64628810811531
 10
352.3792445439561
 20
-19.03009937586423
 10
352.6054047846053
 20
-19.72983641607122
 10
352.8315151277972
 20
-20.42934891770403
 10
352.4478036549656
 20
-21.1799564191009
 10
351.7480416660313
 20
-21.40614160848125
 10
351.0483046258211
 20
-21.63230184912947
 10
350.2978468168071
 20
-21.24826604280765
 10
350.0717614223502
 20
-20.54875354117356
 10
349.8456011816997
 20
-19.84901650096753
 10
350.2293625519879
 20
-19.09863353814419
 10
350.9291494896547
 20
-18.87244834876448
 97
        1
330
92
 92
        1
 93
        1
 72
     4
 94
        3
 73
     0
 74
     0
 95
      194
 96
      190
 40
0.0
 40
0.0
 40
0.0
 40
0.0
 40
1.0
 40
1.0
 40
1.0
 40
2.0
 40
2.0
 40
2.0
 40
3.0
 40
3.0
 40
3.0
 40
4.0
 40
4.0
 40
4.0
 40
5.0
 40
5.0
 40
5.0
 40
6.0
 40
6.0
 40
6.0
 40
7.0
 40
7.0
 40
7.0
 40
8.0
 40
8.0
 40
8.0
 40
9.0
 40
9.0
 40
9.0
 40
10.0
 40
10.0
 40
10.0
 40
11.0
 40
11.0
 40
11.0
 40
12.0
 40
12.0
 40
12.0
 40
13.0
 40
13.0
 40
13.0
 40
14.0
 40
14.0
 40
14.0
 40
15.0
 40
15.0
 40
15.0
 40
16.0
 40
16.0
 40
16.0
 40
17.0
 40
17.0
 40
17.0
 40
18.0
 40
18.0
 40
18.0
 40
19.0
 40
19.0
 40
19.0
 40
20.0
 40
20.0
 40
20.0
 40
21.0
 40
21.0
 40
21.0
 40
22.0
 40
22.0
 40
22.0
 40
23.0
 40
23.0
 40
23.0
 40
24.0
 40
24.0
 40
24.0
 40
25.0
 40
25.0
 40
25.0
 40
26.0
 40
26.0
 40
26.0
 40
27.0
 40
27.0
 40
27.0
 40
28.0
 40
28.0
 40
28.0
 40
29.0
 40
29.0
 40
29.0
 40
30.0
 40
30.0
 40
30.0
 40
31.0
 40
31.0
 40
31.0
 40
32.0
 40
32.0
 40
32.0
 40
33.0
 40
33.0
 40
33.0
 40
34.0
 40
34.0
 40
34.0
 40
35.0
 40
35.0
 40
35.0
 40
36.0
 40
36.0
 40
36.0
 40
37.0
 40
37.0
 40
37.0
 40
38.0
 40
38.0
 40
38.0
 40
39.0
 40
39.0
 40
39.0
 40
40.0
 40
40.0
 40
40.0
 40
41.0
 40
41.0
 40
41.0
 40
42.0
 40
42.0
 40
42.0
 40
43.0
 40
43.0
 40
43.0
 40
44.0
 40
44.0
 40
44.0
 40
45.0
 40
45.0
 40
45.0
 40
46.0
 40
46.0
 40
46.0
 40
47.0
 40
47.0
 40
47.0
 40
48.0
 40
48.0
 40
48.0
 40
49.0
 40
49.0
 40
49.0
 40
50.0
 40
50.0
 40
50.0
 40
51.0
 40
51.0
 40
51.0
 40
52.0
 40
52.0
 40
52.0
 40
53.0
 40
53.0
 40
53.0
 40
54.0
 40
54.0
 40
54.0
 40
55.0
 40
55.0
 40
55.0
 40
56.0
 40
56.0
 40
56.0
 40
57.0
 40
57.0
 40
57.0
 40
58.0
 40
58.0
 40
58.0
 40
59.0
 40
59.0
 40
59.0
 40
60.0
 40
60.0
 40
60.0
 40
61.0
 40
61.0
 40
61.0
 40
62.0
 40
62.0
 40
62.0
 40
63.0
 40
63.0
 40
63.0
 40
63.0
 10
333.9349226301113
 20
-41.67119691474969
 10
340.6067121010785
 20
-37.22331231870946
 10
347.5232985142641
 20
-33.66632193483896
 10
351.843570354549
 20
-26.95017362130653
 10
356.1638421948377
 20
-20.23405025650271
 10
354.5997314428228
 20
-6.93038928313583
 10
351.9094849001456
 20
0.3672141400020159
 10
339.4500141157239
 20
-11.30033404555423
 10
329.9065010374936
 20
-16.96900991522309
 10
324.3445059388151
 20
-35.27973137802843
 10
323.3806865878205
 20
-38.45273585303658
 10
321.5047666038565
 20
-41.92435168164083
 10
319.1789960629042
 20
-45.38706081350714
 10
319.1169735192492
 20
-45.35280620673388
 10
319.0594916445109
 20
-45.31301298181853
 10
318.9964961003689
 20
-45.27998086283022
 10
318.1532290144462
 20
-44.83691636049438
 10
317.303724745929
 20
-44.4238402320425
 10
316.4491558851505
 20
-44.0454178900502
 10
318.1619860187996
 20
-39.9867334875152
 10
320.5314417866046
 20
-36.16563584412978
 10
322.8768968758055
 20
-32.08666812381686
 10
326.8739329656393
 20
-25.13540297543755
 10
332.8452369344918
 20
-17.97419426113936
 10
335.0976332594773
 20
-10.31273855453676
 10
337.3500295844634
 20
-2.651282847932868
 10
335.2492217451017
 20
7.01946875510085
 10
330.6114274136165
 20
13.26308811575086
 10
320.4718891672507
 20
2.005697057196092
 10
314.1866303756373
 20
-7.419534090434539
 10
314.2098326948695
 20
-28.7074124949804
 10
314.2141737739529
 20
-32.69142534756984
 10
313.0308554933163
 20
-37.45972648753226
 10
311.3172768977589
 20
-42.27510588167123
 10
307.8013521240479
 20
-41.43470789973463
 10
304.2240035762095
 20
-41.40357188425539
 10
300.6342305606547
 20
-42.65011024760566
 10
294.4911296345988
 20
-44.78552197596777
 10
282.1066048361617
 20
-57.26497669339654
 10
281.2569508752613
 20
-65.98508187506516
 10
281.2175069325789
 20
-66.3897253326596
 10
281.0913911006453
 20
-67.12321800503044
 10
281.0859522774248
 20
-67.22358674724332
 10
281.0769956832309
 20
-67.48312838910476
 10
281.5900912716666
 20
-68.13481417465268
 10
282.4535668291746
 20
-68.94949001559592
 10
282.6246652219424
 20
-68.68376108860589
 10
282.7648022403342
 20
-68.39630181748042
 10
282.8581853380408
 20
-68.09247617924111
 10
282.929713347964
 20
-67.88879474464147
 10
282.996052021974
 20
-67.65544926965002
 10
282.9894655571603
 20
-67.44248690735702
 10
282.987744094765
 20
-67.21330787033626
 10
282.8982031015236
 20
-67.00718146016062
 10
282.6383620749069
 20
-66.87667465168667
 10
282.3958853646037
 20
-66.75836777235264
 10
282.1148129684492
 20
-66.76919552132311
 10
281.8463646298482
 20
-66.80841492543874
 10
281.80926586782
 20
-66.81490159533054
 10
281.7647323841387
 20
-66.82266065047063
 10
281.723741620169
 20
-66.80689305288705
 10
281.6827259074661
 20
-66.79110050657486
 10
281.645252914474
 20
-66.75175635881074
 10
281.6536606366045
 20
-66.7120379800886
 10
281.6632908465215
 20
-66.67972937428065
 10
281.6904101164123
 20
-66.65977038999905
 10
281.7174794888478
 20
-66.63971161079338
 10
282.1019893210449
 20
-66.38905171693934
 10
282.9664877765017
 20
-66.16977732586538
 10
283.4096520737613
 20
-66.29893690290329
 10
283.6107138916789
 20
-66.35559546953547
 10
283.7585600677514
 20
-66.41390065236912
 10
283.8393690053597
 20
-66.61396452107173
 10
283.9427814926704
 20
-66.85589235930031
 10
283.9694017879621
 20
-67.09597399148539
 10
283.9392637216933
 20
-67.36130373878912
 10
283.8604257337819
 20
-68.00700182905079
 10
283.2510529949099
 20
-68.78722347337745
 10
282.8945356381619
 20
-69.33217859047818
 10
283.0309802444656
 20
-69.40949470584211
 10
283.2081910761616
 20
-69.47718061128902
 10
283.2374309881394
 20
-69.64715631118107
 10
284.2675890131337
 20
-75.63734646890566
 10
300.9135814944203
 20
-76.20730021381618
 10
303.4356486457882
 20
-76.96631543734348
 10
304.3939792761018
 20
-77.25472276022414
 10
305.1217586892306
 20
-77.83687643427426
 10
305.6714291163629
 20
-78.60819138186812
 10
305.3436277482516
 20
-78.67006423314029
 10
305.0141548152138
 20
-78.72991623725842
 10
304.6824863939042
 20
-78.78692408611647
 10
300.8327476080751
 20
-79.44235218121697
 10
293.5716940749081
 20
-79.78786714787236
 10
289.6767481896726
 20
-80.15700856217289
 10
268.9438542918253
 20
-82.10073919523326
 10
251.6375437642939
 20
-96.53674819312987
 10
245.1886462503035
 20
-116.3429963482062
 10
244.2170428954457
 20
-119.329334422716
 10
243.5296804254869
 20
-122.4240497818771
 10
243.1399064111874
 20
-125.5556892619616
 10
241.6789586591856
 20
-125.3558000343728
 10
240.7353228310471
 20
-123.6882767950486
 10
237.7410510602829
 20
-123.2153985599387
 10
235.6189869026649
 20
-122.8802622651099
 10
235.0971592586025
 20
-122.6367377081352
 10
234.0535039704771
 20
-122.6367377081352
 10
230.8768569808371
 20
-122.6367377081352
 10
232.7725114105147
 20
-131.681650410267
 10
234.8188561715142
 20
-140.1003499805402
 10
237.1822244491124
 20
-149.8233442249333
 10
242.6692985105414
 20
-163.1930943850044
 10
251.9630498492088
 20
-166.4273729417605
 10
255.5028256091376
 20
-167.6592414516643
 10
255.4693444130029
 20
-167.6291283341267
 10
260.60516529979
 20
-168.0234929148189
 10
261.7064272063032
 20
-168.1080691107103
 10
262.5279888968252
 20
-168.1679710122892
 10
263.1411787914369
 20
-168.2099846742057
 10
263.8163912297024
 20
-168.5993844575511
 10
264.5034792636252
 20
-168.9662056399283
 10
265.2024179444577
 20
-169.3044355773241
 10
265.2024179444577
 20
-169.3044355773241
 10
265.5038984020406
 20
-169.8478438731384
 10
265.5038984020406
 20
-169.8478438731384
 10
265.5038984020406
 20
-169.8478438731384
 10
265.1792655226924
 20
-170.837709698621
 10
265.1792655226924
 20
-170.837709698621
 10
265.1792655226924
 20
-170.837709698621
 10
264.9000892300399
 20
-171.1859939743452
 10
264.9000892300399
 20
-171.1859939743452
 10
264.9000892300399
 20
-171.1859939743452
 10
264.1141543264684
 20
-171.7665259809292
 10
264.1141543264684
 20
-171.7665259809292
 10
264.1141543264684
 20
-171.7665259809292
 10
261.6978947405239
 20
-168.1062229046642
 10
258.5515105607984
 20
-170.9732312018962
 10
256.8925447359819
 20
-172.4848747739757
 10
257.5932797254032
 20
-174.5219885047531
 10
258.404687282672
 20
-175.3931981686749
 10
259.5196460421389
 20
-176.5903380459243
 10
261.6804306292781
 20
-176.5757929361318
 10
263.115132316945
 20
-176.5756931412097
 10
264.231163871821
 20
-176.5756432437461
 10
277.436745661073
 20
-176.6083011317776
 10
290.7939715585069
 20
-176.6442522522173
 10
290.7939715585069
 20
-176.6442522522173
 10
290.7939715585069
 20
-171.4299948796168
 10
290.7939715585069
 20
-171.4299948796168
 10
291.130055905096
 20
-171.4159986418883
 10
290.7095008826341
 20
-171.4413691782366
 10
291.0335100437247
 20
-171.430167198312
 10
291.0335100437247
 20
-171.430167198312
 10
293.793971557757
 20
-171.4299948796168
 10
293.793971557757
 20
-171.4299948796168
 10
293.793971557757
 20
-171.4299948796168
 10
293.793971557757
 20
-176.6499405627368
 10
293.793971557757
 20
-176.6499405627368
 10
293.793971557757
 20
-176.6499405627368
 10
324.0095442850988
 20
-176.7369118367492
 10
324.0095442850988
 20
-176.7369118367492
 10
324.0095442850988
 20
-176.7369118367492
 10
324.1337141160621
 20
-176.7085451303362
 10
324.321403414505
 20
-176.6364931970775
 10
324.3923825523642
 20
-176.6408592248896
 10
324.4647089216524
 20
-176.6442522522173
 10
324.5418004984419
 20
-176.6442522522173
 10
324.5418004984419
 20
-176.6442522522173
 10
351.0105821455308
 20
-176.6442522522173
 10
351.0105821455308
 20
-176.6442522522173
 10
351.0105821455308
 20
-176.6442522522173
 10
349.2806870803199
 20
-160.5170436698961
 10
341.7382118687678
 20
-162.5740914362199
 10
336.5660406818543
 20
-163.9846677016434
 10
335.6253238551691
 20
-141.2418292403762
 10
334.2546406095847
 20
-135.0579121914627
 10
342.0624705171676
 20
-126.2342198813689
 10
338.2366076662854
 20
-112.1186523761263
 10
337.5976706819482
 20
-100.1077597634571
 10
336.6004948784708
 20
-81.36228172552135
 10
329.5328439029994
 20
-75.62644387374134
 10
326.2453996018611
 20
-56.43041671436459
 10
326.2113944823923
 20
-56.15914916923888
 10
326.1725243605026
 20
-55.91801969037779
 10
326.1265687991917
 20
-55.72097461804995
 10
325.862112257448
 20
-54.58675543874779
 10
325.2992190032287
 20
-52.82450187027049
 10
324.3460777088259
 20
-51.01554427857595
 10
326.7487901341902
 20
-46.79284692270045
 10
329.9071497044843
 20
-44.35637886516944
 10
333.9349226301113
 20
-41.67119691474969
 97
        1
330
93
 75
     2
 76
     1
 98
        1
 10
0.0
 20
0.0
450
        0
451
        0
460
0.0
461
0.0
452
        0
462
0.0
453
        0
470

  0
SPLINE
  5
95
330
70
100
AcDbEntity
  8
Layer 2
100
AcDbSpline
210
0.0
220
0.0
230
1.0
 70
    11
 71
     3
 72
    17
 73
    13
 74
     0
 42
0.0000000001
 43
0.0000000001
 40
0.0
 40
0.0
 40
0.0
 40
0.0
 40
1.0
 40
1.0
 40
1.0
 40
2.0
 40
2.0
 40
2.0
 40
3.0
 40
3.0
 40
3.0
 40
4.0
 40
4.0
 40
4.0
 40
4.0
 10
237.0379444383129
 20
-40.52616905729347
 30
0.0
 10
237.0379444383129
 20
-40.52616905729347
 30
0.0
 10
229.4997467526521
 20
-40.52616905729347
 30
0.0
 10
229.4997467526521
 20
-40.52616905729347
 30
0.0
 10
229.4997467526521
 20
-40.52616905729347
 30
0.0
 10
229.4997467526521
 20
-37.5261690580432
 30
0.0
 10
229.4997467526521
 20
-37.5261690580432
 30
0.0
 10
229.4997467526521
 20
-37.5261690580432
 30
0.0
 10
237.0379444383129
 20
-37.5261690580432
 30
0.0
 10
237.0379444383129
 20
-37.5261690580432
 30
0.0
 10
237.0379444383129
 20
-37.5261690580432
 30
0.0
 10
237.0379444383129
 20
-40.52616905729347
 30
0.0
 10
237.0379444383129
 20
-40.52616905729347
 30
0.0
  0
SPLINE
  5
96
330
70
100
AcDbEntity
  8
Layer 2
100
AcDbSpline
210
0.0
220
0.0
230
1.0
 70
     9
 71
     3
 72
    17
 73
    13
 74
     0
 42
0.0000000001
 43
0.0000000001
 40
0.0
 40
0.0
 40
0.0
 40
0.0
 40
1.0
 40
1.0
 40
1.0
 40
2.0
 40
2.0
 40
2.0
 40
3.0
 40
3.0
 40
3.0
 40
4.0
 40
4.0
 40
4.0
 40
4.0
 10
203.403182551882
 20
-58.53452041331119
 30
0.0
 10
192.6811024145632
 20
-58.53452041331119
 30
0.0
 10
183.9891395615612
 20
-49.84255756030402
 30
0.0
 10
183.9891395615612
 20
-39.12047742298594
 30
0.0
 10
183.9891395615612
 20
-28.39842403222863
 30
0.0
 10
192.6811024145632
 20
-19.70646117922402
 30
0.0
 10
203.403182551882
 20
-19.70646117922402
 30
0.0
 10
214.1252626892001
 20
-19.70646117922402
 30
0.0
 10
222.8172255422021
 20
-28.39842403222863
 30
0.0
 10
222.8172255422021
 20
-39.12047742298594
 30
0.0
 10
222.8172255422021
 20
-49.84255756030402
 30
0.0
 10
214.1252626892001
 20
-58.53452041331119
 30
0.0
 10
203.403182551882
 20
-58.53452041331119
 30
0.0
  0
SPLINE
  5
97
330
70
100
AcDbEntity
  8
Layer 2
100
AcDbSpline
210
0.0
220
0.0
230
1.0
 70
    11
 71
     3
 72
    17
 73
    13
 74
     0
 42
0.0000000001
 43
0.0000000001
 40
0.0
 40
0.0
 40
0.0
 40
0.0
 40
1.0
 40
1.0
 40
1.0
 40
2.0
 40
2.0
 40
2.0
 40
3.0
 40
3.0
 40
3.0
 40
4.0
 40
4.0
 40
4.0
 40
4.0
 10
205.2851029634021
 20
-72.52123112785703
 30
0.0
 10
205.2851029634021
 20
-72.52123112785703
 30
0.0
 10
202.2851029641521
 20
-72.52123112785703
 30
0.0
 10
202.2851029641521
 20
-72.52123112785703
 30
0.0
 10
202.2851029641521
 20
-72.52123112785703
 30
0.0
 10
202.2926088743155
 20
-64.89203122399704
 30
0.0
 10
202.2926088743155
 20
-64.89203122399704
 30
0.0
 10
202.2926088743155
 20
-64.89203122399704
 30
0.0
 10
205.2926088735655
 20
-64.89203122399704
 30
0.0
 10
205.2926088735655
 20
-64.89203122399704
 30
0.0
 10
205.2926088735655
 20
-64.89203122399704
 30
0.0
 10
205.2851029634021
 20
-72.52123112785703
 30
0.0
 10
205.2851029634021
 20
-72.52123112785703
 30
0.0
  0
SPLINE
  5
98
330
70
100
AcDbEntity
  8
Layer 2
100
AcDbSpline
210
0.0
220
0.0
230
1.0
 70
    11
 71
     3
 72
    17
 73
    13
 74
     0
 42
0.0000000001
 43
0.0000000001
 40
0.0
 40
0.0
 40
0.0
 40
0.0
 40
1.0
 40
1.0
 40
1.0
 40
2.0
 40
2.0
 40
2.0
 40
3.0
 40
3.0
 40
3.0
 40
4.0
 40
4.0
 40
4.0
 40
4.0
 10
177.3616049512277
 20
-40.52616905729347
 30
0.0
 10
177.3616049512277
 20
-40.52616905729347
 30
0.0
 10
169.6989094595935
 20
-40.52616905729347
 30
0.0
 10
169.6989094595935
 20
-40.52616905729347
 30
0.0
 10
169.6989094595935
 20
-40.52616905729347
 30
0.0
 10
169.6989094595935
 20
-37.5261690580432
 30
0.0
 10
169.6989094595935
 20
-37.5261690580432
 30
0.0
 10
169.6989094595935
 20
-37.5261690580432
 30
0.0
 10
177.3616049512277
 20
-37.5261690580432
 30
0.0
 10
177.3616049512277
 20
-37.5261690580432
 30
0.0
 10
177.3616049512277
 20
-37.5261690580432
 30
0.0
 10
177.3616049512277
 20
-40.52616905729347
 30
0.0
 10
177.3616049512277
 20
-40.52616905729347
 30
0.0
  0
SPLINE
  5
99
330
70
100
AcDbEntity
  8
Layer 2
100
AcDbSpline
210
0.0
220
0.0
230
1.0
 70
    11
 71
     3
 72
    17
 73
    13
 74
     0
 42
0.0000000001
 43
0.0000000001
 40
0.0
 40
0.0
 40
0.0
 40
0.0
 40
1.0
 40
1.0
 40
1.0
 40
2.0
 40
2.0
 40
2.0
 40
3.0
 40
3.0
 40
3.0
 40
4.0
 40
4.0
 40
4.0
 40
4.0
 10
202.2641053256843
 20
-5.181861937958776
 30
0.0
 10
202.2641053256843
 20
-5.181861937958776
 30
0.0
 10
205.2641053249343
 20
-5.181861937958776
 30
0.0
 10
205.2641053249343
 20
-5.181861937958776
 30
0.0
 10
205.2641053249343
 20
-5.181861937958776
 30
0.0
 10
205.2641053249343
 20
-12.82923356689383
 30
0.0
 10
205.2641053249343
 20
-12.82923356689383
 30
0.0
 10
205.2641053249343
 20
-12.82923356689383
 30
0.0
 10
202.2641053256843
 20
-12.82923356689383
 30
0.0
 10
202.2641053256843
 20
-12.82923356689383
 30
0.0
 10
202.2641053256843
 20
-12.82923356689383
 30
0.0
 10
202.2641053256843
 20
-5.181861937958776
 30
0.0
 10
202.2641053256843
 20
-5.181861937958776
 30
0.0
  0
SPLINE
  5
9A
330
70
100
AcDbEntity
  8
Layer 2
100
AcDbSpline
210
0.0
220
0.0
230
1.0
 70
    11
 71
     3
 72
    35
 73
    31
 74
     0
 42
0.0000000001
 43
0.0000000001
 40
0.0
 40
0.0
 40
0.0
 40
0.0
 40
1.0
 40
1.0
 40
1.0
 40
2.0
 40
2.0
 40
2.0
 40
3.0
 40
3.0
 40
3.0
 40
4.0
 40
4.0
 40
4.0
 40
5.0
 40
5.0
 40
5.0
 40
6.0
 40
6.0
 40
6.0
 40
7.0
 40
7.0
 40
7.0
 40
8.0
 40
8.0
 40
8.0
 40
9.0
 40
9.0
 40
9.0
 40
10.0
 40
10.0
 40
10.0
 40
10.0
 10
240.9658141731952
 20
-37.55140561567639
 30
0.0
 10
240.9658141731952
 20
-37.55140561567639
 30
0.0
 10
245.3869422829854
 20
-37.23146306570182
 30
0.0
 10
245.3869422829854
 20
-37.23146306570182
 30
0.0
 10
244.5595212062602
 20
-14.75563905229917
 30
0.0
 10
226.0812340354764
 20
3.21207211553178
 30
0.0
 10
203.403182551882
 20
3.21207211553178
 30
0.0
 10
180.7251310682882
 20
3.21207211553178
 30
0.0
 10
162.2468194117937
 20
-14.75563905229917
 30
0.0
 10
161.4194228207811
 20
-37.23148755141217
 30
0.0
 10
161.4194228207811
 20
-37.23148755141217
 30
0.0
 10
165.1713172138394
 20
-37.5261690580432
 30
0.0
 10
165.1713172138394
 20
-37.5261690580432
 30
0.0
 10
165.1713172138394
 20
-37.5261690580432
 30
0.0
 10
165.1713051039306
 20
-40.52072840182353
 30
0.0
 10
165.1713051039306
 20
-40.52072840182353
 30
0.0
 10
165.1713051039306
 20
-40.52072840182353
 30
0.0
 10
161.4295354185751
 20
-40.64303240752044
 30
0.0
 10
161.4295354185751
 20
-40.64303240752044
 30
0.0
 10
162.3925583514419
 20
-62.99424864809444
 30
0.0
 10
180.8148222201611
 20
-80.82001616116338
 30
0.0
 10
203.403182551882
 20
-80.82001616116338
 30
0.0
 10
225.9915428836061
 20
-80.82001616116338
 30
0.0
 10
244.4138067523208
 20
-62.99424864809444
 30
0.0
 10
245.3768296851908
 20
-40.64303240752044
 30
0.0
 10
245.3768296851908
 20
-40.64303240752044
 30
0.0
 10
240.9661794338629
 20
-40.50093249966028
 30
0.0
 10
240.9661794338629
 20
-40.50093249966028
 30
0.0
 10
240.9661794338629
 20
-40.50093249966028
 30
0.0
 10
240.9658141731952
 20
-37.55140561567639
 30
0.0
 10
240.9658141731952
 20
-37.55140561567639
 30
0.0
  0
HATCH
  5
9B
330
70
100
AcDbEntity
  8
Layer 2
 62
   255
440
 33554687
100
AcDbHatch
 10
0.0
 20
0.0
 30
0.0
210
0.0
220
0.0
230
1.0
  2
SOLID
 70
     1
 71
     1
 91
        6
 92
        1
 93
        1
 72
     4
 94
        3
 73
     0
 74
     0
 95
       17
 96
       13
 40
0.0
 40
0.0
 40
0.0
 40
0.0
 40
1.0
 40
1.0
 40
1.0
 40
2.0
 40
2.0
 40
2.0
 40
3.0
 40
3.0
 40
3.0
 40
4.0
 40
4.0
 40
4.0
 40
4.0
 10
237.0379444383129
 20
-40.52616905729347
 10
237.0379444383129
 20
-40.52616905729347
 10
229.4997467526521
 20
-40.52616905729347
 10
229.4997467526521
 20
-40.52616905729347
 10
229.4997467526521
 20
-40.52616905729347
 10
229.4997467526521
 20
-37.5261690580432
 10
229.4997467526521
 20
-37.5261690580432
 10
229.4997467526521
 20
-37.5261690580432
 10
237.0379444383129
 20
-37.5261690580432
 10
237.0379444383129
 20
-37.5261690580432
 10
237.0379444383129
 20
-37.5261690580432
 10
237.0379444383129
 20
-40.52616905729347
 10
237.0379444383129
 20
-40.52616905729347
 97
        1
330
95
 92
        1
 93
        1
 72
     4
 94
        3
 73
     0
 74
     0
 95
       17
 96
       13
 40
0.0
 40
0.0
 40
0.0
 40
0.0
 40
1.0
 40
1.0
 40
1.0
 40
2.0
 40
2.0
 40
2.0
 40
3.0
 40
3.0
 40
3.0
 40
4.0
 40
4.0
 40
4.0
 40
4.0
 10
203.403182551882
 20
-58.53452041331119
 10
192.6811024145632
 20
-58.53452041331119
 10
183.9891395615612
 20
-49.84255756030402
 10
183.9891395615612
 20
-39.12047742298594
 10
183.9891395615612
 20
-28.39842403222863
 10
192.6811024145632
 20
-19.70646117922402
 10
203.403182551882
 20
-19.70646117922402
 10
214.1252626892001
 20
-19.70646117922402
 10
222.8172255422021
 20
-28.39842403222863
 10
222.8172255422021
 20
-39.12047742298594
 10
222.8172255422021
 20
-49.84255756030402
 10
214.1252626892001
 20
-58.53452041331119
 10
203.403182551882
 20
-58.53452041331119
 97
        1
330
96
 92
        1
 93
        1
 72
     4
 94
        3
 73
     0
 74
     0
 95
       17
 96
       13
 40
0.0
 40
0.0
 40
0.0
 40
0.0
 40
1.0
 40
1.0
 40
1.0
 40
2.0
 40
2.0
 40
2.0
 40
3.0
 40
3.0
 40
3.0
 40
4.0
 40
4.0
 40
4.0
 40
4.0
 10
205.2851029634021
 20
-72.52123112785703
 10
205.2851029634021
 20
-72.52123112785703
 10
202.2851029641521
 20
-72.52123112785703
 10
202.2851029641521
 20
-72.52123112785703
 10
202.2851029641521
 20
-72.52123112785703
 10
202.2926088743155
 20
-64.89203122399704
 10
202.2926088743155
 20
-64.89203122399704
 10
202.2926088743155
 20
-64.89203122399704
 10
205.2926088735655
 20
-64.89203122399704
 10
205.2926088735655
 20
-64.89203122399704
 10
205.2926088735655
 20
-64.89203122399704
 10
205.2851029634021
 20
-72.52123112785703
 10
205.2851029634021
 20
-72.52123112785703
 97
        1
330
97
 92
        1
 93
        1
 72
     4
 94
        3
 73
     0
 74
     0
 95
       17
 96
       13
 40
0.0
 40
0.0
 40
0.0
 40
0.0
 40
1.0
 40
1.0
 40
1.0
 40
2.0
 40
2.0
 40
2.0
 40
3.0
 40
3.0
 40
3.0
 40
4.0
 40
4.0
 40
4.0
 40
4.0
 10
177.3616049512277
 20
-40.52616905729347
 10
177.3616049512277
 20
-40.52616905729347
 10
169.6989094595935
 20
-40.52616905729347
 10
169.6989094595935
 20
-40.52616905729347
 10
169.6989094595935
 20
-40.52616905729347
 10
169.6989094595935
 20
-37.5261690580432
 10
169.6989094595935
 20
-37.5261690580432
 10
169.6989094595935
 20
-37.5261690580432
 10
177.3616049512277
 20
-37.5261690580432
 10
177.3616049512277
 20
-37.5261690580432
 10
177.3616049512277
 20
-37.5261690580432
 10
177.3616049512277
 20
-40.52616905729347
 10
177.3616049512277
 20
-40.52616905729347
 97
        1
330
98
 92
        1
 93
        1
 72
     4
 94
        3
 73
     0
 74
     0
 95
       17
 96
       13
 40
0.0
 40
0.0
 40
0.0
 40
0.0
 40
1.0
 40
1.0
 40
1.0
 40
2.0
 40
2.0
 40
2.0
 40
3.0
 40
3.0
 40
3.0
 40
4.0
 40
4.0
 40
4.0
 40
4.0
 10
202.2641053256843
 20
-5.181861937958776
 10
202.2641053256843
 20
-5.181861937958776
 10
205.2641053249343
 20
-5.181861937958776
 10
205.2641053249343
 20
-5.181861937958776
 10
205.2641053249343
 20
-5.181861937958776
 10
205.2641053249343
 20
-12.82923356689383
 10
205.2641053249343
 20
-12.82923356689383
 10
205.2641053249343
 20
-12.82923356689383
 10
202.2641053256843
 20
-12.82923356689383
 10
202.2641053256843
 20
-12.82923356689383
 10
202.2641053256843
 20
-12.82923356689383
 10
202.2641053256843
 20
-5.181861937958776
 10
202.2641053256843
 20
-5.181861937958776
 97
        1
330
99
 92
        1
 93
        1
 72
     4
 94
        3
 73
     0
 74
     0
 95
       35
 96
       31
 40
0.0
 40
0.0
 40
0.0
 40
0.0
 40
1.0
 40
1.0
 40
1.0
 40
2.0
 40
2.0
 40
2.0
 40
3.0
 40
3.0
 40
3.0
 40
4.0
 40
4.0
 40
4.0
 40
5.0
 40
5.0
 40
5.0
 40
6.0
 40
6.0
 40
6.0
 40
7.0
 40
7.0
 40
7.0
 40
8.0
 40
8.0
 40
8.0
 40
9.0
 40
9.0
 40
9.0
 40
10.0
 40
10.0
 40
10.0
 40
10.0
 10
240.9658141731952
 20
-37.55140561567639
 10
240.9658141731952
 20
-37.55140561567639
 10
245.3869422829854
 20
-37.23146306570182
 10
245.3869422829854
 20
-37.23146306570182
 10
244.5595212062602
 20
-14.75563905229917
 10
226.0812340354764
 20
3.21207211553178
 10
203.403182551882
 20
3.21207211553178
 10
180.7251310682882
 20
3.21207211553178
 10
162.2468194117937
 20
-14.75563905229917
 10
161.4194228207811
 20
-37.23148755141217
 10
161.4194228207811
 20
-37.23148755141217
 10
165.1713172138394
 20
-37.5261690580432
 10
165.1713172138394
 20
-37.5261690580432
 10
165.1713172138394
 20
-37.5261690580432
 10
165.1713051039306
 20
-40.52072840182353
 10
165.1713051039306
 20
-40.52072840182353
 10
165.1713051039306
 20
-40.52072840182353
 10
161.4295354185751
 20
-40.64303240752044
 10
161.4295354185751
 20
-40.64303240752044
 10
162.3925583514419
 20
-62.99424864809444
 10
180.8148222201611
 20
-80.82001616116338
 10
203.403182551882
 20
-80.82001616116338
 10
225.9915428836061
 20
-80.82001616116338
 10
244.4138067523208
 20
-62.99424864809444
 10
245.3768296851908
 20
-40.64303240752044
 10
245.3768296851908
 20
-40.64303240752044
 10
240.9661794338629
 20
-40.50093249966028
 10
240.9661794338629
 20
-40.50093249966028
 10
240.9661794338629
 20
-40.50093249966028
 10
240.9658141731952
 20
-37.55140561567639
 10
240.9658141731952
 20
-37.55140561567639
 97
        1
330
9A
 75
     2
 76
     1
 98
        1
 10
0.0
 20
0.0
450
        0
451
        0
460
0.0
461
0.0
452
        0
462
0.0
453
        0
470

  0
ENDSEC
  0
SECTION
  2
OBJECTS
  0
DICTIONARY
  5
C
330
0
100
AcDbDictionary
281
     1
  3
ACAD_COLOR
350
63
  3
ACAD_DETAILVIEWSTYLE
350
6A
  3
ACAD_GROUP
350
D
  3
ACAD_LAYOUT
350
62
  3
ACAD_MATERIAL
350
10
  3
ACAD_MLEADERSTYLE
350
66
  3
ACAD_MLINESTYLE
350
5F
  3
ACAD_PLOTSETTINGS
350
61
  3
ACAD_PLOTSTYLENAME
350
E
  3
ACAD_SCALELIST
350
42
  3
ACAD_SECTIONVIEWSTYLE
350
68
  3
ACAD_TABLESTYLE
350
64
  3
ACAD_VISUALSTYLE
350
29
  3
ACDB_RECOMPOSE_DATA
350
A9
  3
AcDbVariableDictionary
350
9C
  0
DICTIONARY
  5
63
102
{ACAD_REACTORS
330
C
102
}
330
C
100
AcDbDictionary
281
     1
  0
DICTIONARY
  5
6A
102
{ACAD_REACTORS
330
C
102
}
330
C
100
AcDbDictionary
281
     1
  3
Imperial24
350
6B
  0
DICTIONARY
  5
D
102
{ACAD_REACTORS
330
C
102
}
330
C
100
AcDbDictionary
281
     1
  0
DICTIONARY
  5
62
102
{ACAD_REACTORS
330
C
102
}
330
C
100
AcDbDictionary
281
     1
  3
Layout1
350
6F
  3
Layout2
350
77
  3
Model
350
73
  0
DICTIONARY
  5
10
102
{ACAD_REACTORS
330
C
102
}
330
C
100
AcDbDictionary
281
     1
  3
ByBlock
350
19
  3
ByLayer
350
11
  3
Global
350
21
  0
DICTIONARY
  5
66
102
{ACAD_REACTORS
330
C
102
}
330
C
100
AcDbDictionary
281
     1
  3
Standard
350
67
  0
DICTIONARY
  5
5F
102
{ACAD_REACTORS
330
C
102
}
330
C
100
AcDbDictionary
281
     1
  3
Standard
350
60
  0
DICTIONARY
  5
61
102
{ACAD_REACTORS
330
C
102
}
330
C
100
AcDbDictionary
281
     1
  0
ACDBDICTIONARYWDFLT
  5
E
102
{ACAD_REACTORS
330
C
102
}
330
C
100
AcDbDictionary
281
     1
  3
Normal
350
F
100
AcDbDictionaryWithDefault
340
F
  0
DICTIONARY
  5
42
102
{ACAD_REACTORS
330
C
102
}
330
C
100
AcDbDictionary
281
     1
  3
A0
350
43
  3
A1
350
44
  3
A2
350
45
  3
A3
350
46
  3
A4
350
47
  3
A5
350
48
  3
A6
350
49
  3
A7
350
4A
  3
A8
350
4B
  3
A9
350
4C
  3
B0
350
4D
  3
B1
350
4E
  3
B2
350
4F
  3
B3
350
50
  3
B4
350
51
  3
B5
350
52
  3
B6
350
53
  0
DICTIONARY
  5
68
102
{ACAD_REACTORS
330
C
102
}
330
C
100
AcDbDictionary
281
     1
  3
Imperial24
350
69
  0
DICTIONARY
  5
64
102
{ACAD_REACTORS
330
C
102
}
330
C
100
AcDbDictionary
281
     1
  3
Standard
350
65
  0
DICTIONARY
  5
29
102
{ACAD_REACTORS
330
C
102
}
330
C
100
AcDbDictionary
281
     1
  3
2dWireframe
350
2F
  3
Basic
350
2E
  3
Brighten
350
35
  3
ColorChange
350
39
  3
Conceptual
350
32
  3
Dim
350
34
  3
EdgeColorOff
350
41
  3
Facepattern
350
38
  3
Flat
350
2A
  3
FlatWithEdges
350
2B
  3
Gouraud
350
2C
  3
GouraudWithEdges
350
2D
  3
Hidden
350
31
  3
JitterOff
350
3F
  3
Linepattern
350
37
  3
OverhangOff
350
40
  3
Realistic
350
33
  3
Shaded
350
3E
  3
Shaded with edges
350
3D
  3
Shades of Gray
350
3A
  3
Sketchy
350
3B
  3
Thicken
350
36
  3
Wireframe
350
30
  3
X-Ray
350
3C
  0
XRECORD
  5
A9
102
{ACAD_REACTORS
330
C
102
}
330
C
100
AcDbXrecord
280
     1
 90
        1
330
65
  0
DICTIONARY
  5
9C
102
{ACAD_REACTORS
330
C
102
}
330
C
100
AcDbDictionary
281
     1
  3
CANNOSCALE
350
A2
  3
CMLEADERSTYLE
350
9E
  3
CTABLESTYLE
350
9D
  3
CVIEWDETAILSTYLE
350
9F
  3
CVIEWSECTIONSTYLE
350
A0
  3
LAYEREVAL
350
A4
  3
LAYERNOTIFY
350
A5
  3
LIGHTINGUNITS
350
A3
  3
MSLTSCALE
350
A1
  3
XCLIPFRAME
350
A6
  0
ACDBDETAILVIEWSTYLE
  5
6B
102
{ACAD_XDICTIONARY
360
E3
102
}
102
{ACAD_REACTORS
330
6A
102
}
330
6A
100
AcDbModelDocViewStyle
 70
     0
  3
Imperial24
290
     0
100
AcDbDetailViewStyle
 70
     0
 71
     0
 90
        3
 71
     1
340
55
 62
   256
 40
0.24
340
0
 62
   256
 40
0.24
300

 40
0.36
280
     3
 71
     2
340
5D
 90
       25
 62
   256
 71
     3
340
55
 62
   256
 40
0.24
 90
        1
 40
0.75
 90
        1
300
%<\AcVar ViewType \f "%tc1">% %<\AcVar ViewDetailId>%\PSCALE %<\AcVar ViewScale \f "%sn">%
 71
     4
340
5D
 90
       25
 62
   256
340
5D
 90
       25
 62
   256
280
     0
  0
LAYOUT
  5
6F
102
{ACAD_REACTORS
330
62
102
}
330
62
100
AcDbPlotSettings
  1

  2

  4

  6

 40
0.0
 41
0.0
 42
0.0
 43
0.0
 44
0.0
 45
0.0
 46
0.0
 47
0.0
 48
0.0
 49
0.0
140
0.0
141
0.0
142
1.0
143
1.0
 70
   688
 72
     0
 73
     0
 74
     5
  7

 75
    16
147
1.0
 76
     0
 77
     2
 78
   300
148
0.0
149
0.0
100
AcDbLayout
  1
Layout1
 70
     1
 71
     1
 10
0.0
 20
0.0
 11
12.0
 21
9.0
 12
0.0
 22
0.0
 32
0.0
 14
0.0
 24
0.0
 34
0.0
 15
0.0
 25
0.0
 35
0.0
146
0.0
 13
0.0
 23
0.0
 33
0.0
 16
1.0
 26
0.0
 36
0.0
 17
0.0
 27
1.0
 37
0.0
 76
     0
330
6C
  0
LAYOUT
  5
77
102
{ACAD_REACTORS
330
62
102
}
330
62
100
AcDbPlotSettings
  1

  2

  4

  6

 40
0.0
 41
0.0
 42
0.0
 43
0.0
 44
0.0
 45
0.0
 46
0.0
 47
0.0
 48
0.0
 49
0.0
140
0.0
141
0.0
142
1.0
143
1.0
 70
   688
 72
     0
 73
     0
 74
     5
  7

 75
    16
147
1.0
 76
     0
 77
     2
 78
   300
148
0.0
149
0.0
100
AcDbLayout
  1
Layout2
 70
     1
 71
     2
 10
0.0
 20
0.0
 11
12.0
 21
9.0
 12
0.0
 22
0.0
 32
0.0
 14
0.0
 24
0.0
 34
0.0
 15
0.0
 25
0.0
 35
0.0
146
0.0
 13
0.0
 23
0.0
 33
0.0
 16
1.0
 26
0.0
 36
0.0
 17
0.0
 27
1.0
 37
0.0
 76
     0
330
74
  0
LAYOUT
  5
73
102
{ACAD_REACTORS
330
62
102
}
330
62
100
AcDbPlotSettings
  1

  2

  4

  6

 40
0.0
 41
0.0
 42
0.0
 43
0.0
 44
0.0
 45
0.0
 46
0.0
 47
0.0
 48
0.0
 49
0.0
140
0.0
141
0.0
142
1.0
143
1.0
 70
  1712
 72
     0
 73
     0
 74
     0
  7

 75
     0
147
1.0
 76
     0
 77
     2
 78
   300
148
0.0
149
0.0
100
AcDbLayout
  1
Model
 70
     1
 71
     0
 10
0.0
 20
0.0
 11
12.0
 21
9.0
 12
0.0
 22
0.0
 32
0.0
 14
0.0
 24
0.0
 34
0.0
 15
0.0
 25
0.0
 35
0.0
146
0.0
 13
0.0
 23
0.0
 33
0.0
 16
1.0
 26
0.0
 36
0.0
 17
0.0
 27
1.0
 37
0.0
 76
     0
330
70
  0
MATERIAL
  5
19
102
{ACAD_XDICTIONARY
360
1A
102
}
102
{ACAD_REACTORS
330
10
102
}
330
10
100
AcDbMaterial
  1
ByBlock
 72
     0
 43
0.0208333333333333
 43
0.0
 43
0.0
 43
0.0
 43
0.0
 43
0.0208333333333333
 43
0.0
 43
0.0
 43
0.0
 43
0.0
 43
1.0
 43
0.0
 43
0.0
 43
0.0
 43
0.0
 43
1.0
 77
     0
 47
0.0208333333333333
 47
0.0
 47
0.0
 47
0.0
 47
0.0
 47
0.0208333333333333
 47
0.0
 47
0.0
 47
0.0
 47
0.0
 47
1.0
 47
0.0
 47
0.0
 47
0.0
 47
0.0
 47
1.0
171
     0
 49
0.0208333333333333
 49
0.0
 49
0.0
 49
0.0
 49
0.0
 49
0.0208333333333333
 49
0.0
 49
0.0
 49
0.0
 49
0.0
 49
1.0
 49
0.0
 49
0.0
 49
0.0
 49
0.0
 49
1.0
175
     0
142
0.0208333333333333
142
0.0
142
0.0
142
0.0
142
0.0
142
0.0208333333333333
142
0.0
142
0.0
142
0.0
142
0.0
142
1.0
142
0.0
142
0.0
142
0.0
142
0.0
142
1.0
179
     0
144
0.0208333333333333
144
0.0
144
0.0
144
0.0
144
0.0
144
0.0208333333333333
144
0.0
144
0.0
144
0.0
144
0.0
144
1.0
144
0.0
144
0.0
144
0.0
144
0.0
144
1.0
147
0.0208333333333333
147
0.0
147
0.0
147
0.0
147
0.0
147
0.0208333333333333
147
0.0
147
0.0
147
0.0
147
0.0
147
1.0
147
0.0
147
0.0
147
0.0
147
0.0
147
1.0
  0
MATERIAL
  5
11
102
{ACAD_XDICTIONARY
360
12
102
}
102
{ACAD_REACTORS
330
10
102
}
330
10
100
AcDbMaterial
  1
ByLayer
 72
     0
 43
0.0208333333333333
 43
0.0
 43
0.0
 43
0.0
 43
0.0
 43
0.0208333333333333
 43
0.0
 43
0.0
 43
0.0
 43
0.0
 43
1.0
 43
0.0
 43
0.0
 43
0.0
 43
0.0
 43
1.0
 77
     0
 47
0.0208333333333333
 47
0.0
 47
0.0
 47
0.0
 47
0.0
 47
0.0208333333333333
 47
0.0
 47
0.0
 47
0.0
 47
0.0
 47
1.0
 47
0.0
 47
0.0
 47
0.0
 47
0.0
 47
1.0
171
     0
 49
0.0208333333333333
 49
0.0
 49
0.0
 49
0.0
 49
0.0
 49
0.0208333333333333
 49
0.0
 49
0.0
 49
0.0
 49
0.0
 49
1.0
 49
0.0
 49
0.0
 49
0.0
 49
0.0
 49
1.0
175
     0
142
0.0208333333333333
142
0.0
142
0.0
142
0.0
142
0.0
142
0.0208333333333333
142
0.0
142
0.0
142
0.0
142
0.0
142
1.0
142
0.0
142
0.0
142
0.0
142
0.0
142
1.0
179
     0
144
0.0208333333333333
144
0.0
144
0.0
144
0.0
144
0.0
144
0.0208333333333333
144
0.0
144
0.0
144
0.0
144
0.0
144
1.0
144
0.0
144
0.0
144
0.0
144
0.0
144
1.0
147
0.0208333333333333
147
0.0
147
0.0
147
0.0
147
0.0
147
0.0208333333333333
147
0.0
147
0.0
147
0.0
147
0.0
147
1.0
147
0.0
147
0.0
147
0.0
147
0.0
147
1.0
  0
MATERIAL
  5
21
102
{ACAD_XDICTIONARY
360
22
102
}
102
{ACAD_REACTORS
330
10
102
}
330
10
100
AcDbMaterial
  1
Global
 72
     0
 43
0.0208333333333333
 43
0.0
 43
0.0
 43
0.0
 43
0.0
 43
0.0208333333333333
 43
0.0
 43
0.0
 43
0.0
 43
0.0
 43
1.0
 43
0.0
 43
0.0
 43
0.0
 43
0.0
 43
1.0
 77
     0
 47
0.0208333333333333
 47
0.0
 47
0.0
 47
0.0
 47
0.0
 47
0.0208333333333333
 47
0.0
 47
0.0
 47
0.0
 47
0.0
 47
1.0
 47
0.0
 47
0.0
 47
0.0
 47
0.0
 47
1.0
171
     0
 49
0.0208333333333333
 49
0.0
 49
0.0
 49
0.0
 49
0.0
 49
0.0208333333333333
 49
0.0
 49
0.0
 49
0.0
 49
0.0
 49
1.0
 49
0.0
 49
0.0
 49
0.0
 49
0.0
 49
1.0
175
     0
142
0.0208333333333333
142
0.0
142
0.0
142
0.0
142
0.0
142
0.0208333333333333
142
0.0
142
0.0
142
0.0
142
0.0
142
1.0
142
0.0
142
0.0
142
0.0
142
0.0
142
1.0
179
     0
144
0.0208333333333333
144
0.0
144
0.0
144
0.0
144
0.0
144
0.0208333333333333
144
0.0
144
0.0
144
0.0
144
0.0
144
1.0
144
0.0
144
0.0
144
0.0
144
0.0
144
1.0
147
0.0208333333333333
147
0.0
147
0.0
147
0.0
147
0.0
147
0.0208333333333333
147
0.0
147
0.0
147
0.0
147
0.0
147
1.0
147
0.0
147
0.0
147
0.0
147
0.0
147
1.0
  0
MLEADERSTYLE
  5
67
102
{ACAD_XDICTIONARY
360
DF
102
}
102
{ACAD_REACTORS
330
66
102
}
330
66
100
AcDbMLeaderStyle
170
     2
171
     1
172
     0
 90
        2
 40
0.0
 41
0.0
173
     1
 91
-1056964608
340
5B
 92
       -2
290
     1
 42
0.09
291
     1
 43
0.36
  3
Standard
 44
0.18
300

342
55
174
     1
178
     6
175
     1
176
     0
 93
-1056964608
 45
0.18
292
     0
297
     0
 46
0.18
 94
-1056964608
 47
1.0
 49
1.0
140
1.0
293
     1
141
0.0
294
     1
177
     0
142
1.0
295
     0
296
     0
143
0.125
1001
ACAD_MLEADERVER
1070
     2
  0
MLINESTYLE
  5
60
102
{ACAD_REACTORS
330
5F
102
}
330
5F
100
AcDbMlineStyle
  2
STANDARD
 70
     0
  3

 62
   256
 51
90.0
 52
90.0
 71
     2
 49
0.5
 62
   256
  6
BYLAYER
 49
-0.5
 62
   256
  6
BYLAYER
  0
ACDBPLACEHOLDER
  5
F
102
{ACAD_REACTORS
330
E
102
}
330
E
  0
SCALE
  5
43
102
{ACAD_REACTORS
330
42
102
}
330
42
100
AcDbScale
 70
     0
300
1:1
140
1.0
141
1.0
290
     1
  0
SCALE
  5
44
102
{ACAD_REACTORS
330
42
102
}
330
42
100
AcDbScale
 70
     0
300
1/128" = 1'-0"
140
0.0078125
141
12.0
290
     0
  0
SCALE
  5
45
102
{ACAD_REACTORS
330
42
102
}
330
42
100
AcDbScale
 70
     0
300
1/64" = 1'-0"
140
0.015625
141
12.0
290
     0
  0
SCALE
  5
46
102
{ACAD_REACTORS
330
42
102
}
330
42
100
AcDbScale
 70
     0
300
1/32" = 1'-0"
140
0.03125
141
12.0
290
     0
  0
SCALE
  5
47
102
{ACAD_REACTORS
330
42
102
}
330
42
100
AcDbScale
 70
     0
300
1/16" = 1'-0"
140
0.0625
141
12.0
290
     0
  0
SCALE
  5
48
102
{ACAD_REACTORS
330
42
102
}
330
42
100
AcDbScale
 70
     0
300
3/32" = 1'-0"
140
0.09375
141
12.0
290
     0
  0
SCALE
  5
49
102
{ACAD_REACTORS
330
42
102
}
330
42
100
AcDbScale
 70
     0
300
1/8" = 1'-0"
140
0.125
141
12.0
290
     0
  0
SCALE
  5
4A
102
{ACAD_REACTORS
330
42
102
}
330
42
100
AcDbScale
 70
     0
300
3/16" = 1'-0"
140
0.1875
141
12.0
290
     0
  0
SCALE
  5
4B
102
{ACAD_REACTORS
330
42
102
}
330
42
100
AcDbScale
 70
     0
300
1/4" = 1'-0"
140
0.25
141
12.0
290
     0
  0
SCALE
  5
4C
102
{ACAD_REACTORS
330
42
102
}
330
42
100
AcDbScale
 70
     0
300
3/8" = 1'-0"
140
0.375
141
12.0
290
     0
  0
SCALE
  5
4D
102
{ACAD_REACTORS
330
42
102
}
330
42
100
AcDbScale
 70
     0
300
1/2" = 1'-0"
140
0.5
141
12.0
290
     0
  0
SCALE
  5
4E
102
{ACAD_REACTORS
330
42
102
}
330
42
100
AcDbScale
 70
     0
300
3/4" = 1'-0"
140
0.75
141
12.0
290
     0
  0
SCALE
  5
4F
102
{ACAD_REACTORS
330
42
102
}
330
42
100
AcDbScale
 70
     0
300
1" = 1'-0"
140
1.0
141
12.0
290
     0
  0
SCALE
  5
50
102
{ACAD_REACTORS
330
42
102
}
330
42
100
AcDbScale
 70
     0
300
1-1/2" = 1'-0"
140
1.5
141
12.0
290
     0
  0
SCALE
  5
51
102
{ACAD_REACTORS
330
42
102
}
330
42
100
AcDbScale
 70
     0
300
3" = 1'-0"
140
3.0
141
12.0
290
     0
  0
SCALE
  5
52
102
{ACAD_REACTORS
330
42
102
}
330
42
100
AcDbScale
 70
     0
300
6" = 1'-0"
140
6.0
141
12.0
290
     0
  0
SCALE
  5
53
102
{ACAD_REACTORS
330
42
102
}
330
42
100
AcDbScale
 70
     0
300
1'-0" = 1'-0"
140
12.0
141
12.0
290
     0
  0
ACDBSECTIONVIEWSTYLE
  5
69
102
{ACAD_XDICTIONARY
360
E1
102
}
102
{ACAD_REACTORS
330
68
102
}
330
68
100
AcDbModelDocViewStyle
 70
     0
  3
Imperial24
290
     0
100
AcDbSectionViewStyle
 70
     0
 71
     0
 90
       78
 71
     1
340
55
 62
   256
 40
0.24
340
0
340
0
 62
   256
 40
0.24
300
I, O, Q, S, X, Z
 40
0.48
 90
        3
 40
0.18
 90
        1
 71
     2
340
5D
 90
       25
 62
   256
340
5D
 90
       50
 62
   256
 40
0.24
 40
0.0
 40
0.24
 71
     3
340
55
 62
   256
 40
0.24
 90
        1
 40
0.75
 90
        1
300
%<\AcVar ViewType \f "%tc1">% %<\AcVar ViewSectionStartId>%-%<\AcVar ViewSectionEndId>%\PSCALE %<\AcVar ViewScale \f "%sn">%
 71
     4
 62
   256
 62
   257
300
ANSI31
 40
1.0
 90
        0
290
     0
290
     0
 90
        6
 40
0.0
 40
1.570796326794896
 40
0.2617993877991494
 40
1.308996938995747
 40
-0.2617993877991494
 40
1.832595714594046
  0
TABLESTYLE
  5
65
102
{ACAD_XDICTIONARY
360
A7
102
}
102
{ACAD_REACTORS
330
64
102
}
330
64
100
AcDbTableStyle
  3
Standard
 70
     0
 71
     0
 40
0.06
 41
0.06
280
     0
281
     0
  7
Standard
140
0.18
170
     2
 62
     0
 63
     7
283
     0
274
    -2
284
     1
 64
     0
275
    -2
285
     1
 65
     0
276
    -2
286
     1
 66
     0
277
    -2
287
     1
 67
     0
278
    -2
288
     1
 68
     0
279
    -2
289
     1
 69
     0
  7
Standard
140
0.25
170
     5
 62
     0
 63
     7
283
     0
274
    -2
284
     1
 64
     0
275
    -2
285
     1
 65
     0
276
    -2
286
     1
 66
     0
277
    -2
287
     1
 67
     0
278
    -2
288
     1
 68
     0
279
    -2
289
     1
 69
     0
  7
Standard
140
0.18
170
     5
 62
     0
 63
     7
283
     0
274
    -2
284
     1
 64
     0
275
    -2
285
     1
 65
     0
276
    -2
286
     1
 66
     0
277
    -2
287
     1
 67
     0
278
    -2
288
     1
 68
     0
279
    -2
289
     1
 69
     0
  0
VISUALSTYLE
  5
2F
102
{ACAD_XDICTIONARY
360
B7
102
}
102
{ACAD_REACTORS
330
29
102
}
330
29
100
AcDbVisualStyle
  2
2dWireframe
 70
     4
 71
     0
 72
     2
 73
     0
 90
        0
 40
-0.6
 41
-30.0
 62
     5
 63
     7
421
 16777215
 74
     1
 91
        4
 64
     7
 65
   257
 75
     1
175
     1
 42
1.0
 92
        0
 66
   257
 43
1.0
 76
     1
 77
     6
 78
     2
 67
     7
 79
     5
170
     0
171
     0
290
     0
174
     0
 93
        1
 44
0.0
173
     0
291
     0
 45
0.0
1001
ACAD
1000
AcDbSavedByObjectVersion
1070
     0
  0
VISUALSTYLE
  5
2E
102
{ACAD_XDICTIONARY
360
B5
102
}
102
{ACAD_REACTORS
330
29
102
}
330
29
100
AcDbVisualStyle
  2
Basic
 70
     7
 71
     1
 72
     0
 73
     1
 90
        0
 40
-0.6
 41
-30.0
 62
     5
 63
     7
421
 16777215
 74
     0
 91
        4
 64
     7
 65
   257
 75
     1
175
     1
 42
1.0
 92
        8
 66
     7
 43
1.0
 76
     1
 77
     6
 78
     2
 67
     7
 79
     5
170
     0
171
     0
290
     0
174
     0
 93
        1
 44
0.0
173
     0
291
     1
 45
0.0
1001
ACAD
1000
AcDbSavedByObjectVersion
1070
     0
  0
VISUALSTYLE
  5
35
102
{ACAD_XDICTIONARY
360
C3
102
}
102
{ACAD_REACTORS
330
29
102
}
330
29
100
AcDbVisualStyle
  2
Brighten
 70
    12
 71
     2
 72
     2
 73
     0
 90
        0
 40
-0.6
 41
-30.0
 62
     5
 63
     7
421
 16777215
 74
     1
 91
        4
 64
     7
 65
   257
 75
     1
175
     1
 42
1.0
 92
        8
 66
     7
 43
1.0
 76
     1
 77
     6
 78
     2
 67
     7
 79
     5
170
     0
171
     0
290
     0
174
     0
 93
        1
 44
50.0
173
     0
291
     1
 45
0.0
1001
ACAD
1000
AcDbSavedByObjectVersion
1070
     0
  0
VISUALSTYLE
  5
39
102
{ACAD_XDICTIONARY
360
CB
102
}
102
{ACAD_REACTORS
330
29
102
}
330
29
100
AcDbVisualStyle
  2
ColorChange
 70
    16
 71
     2
 72
     2
 73
     3
 90
        0
 40
-0.6
 41
-30.0
 62
     5
 63
     8
421
  8421504
 74
     1
 91
        4
 64
     7
 65
   257
 75
     1
175
     1
 42
1.0
 92
        8
 66
     8
424
  8421504
 43
1.0
 76
     1
 77
     6
 78
     2
 67
     7
 79
     5
170
     0
171
     0
290
     0
174
     0
 93
        1
 44
0.0
173
     0
291
     1
 45
0.0
1001
ACAD
1000
AcDbSavedByObjectVersion
1070
     0
  0
VISUALSTYLE
  5
32
102
{ACAD_XDICTIONARY
360
BD
102
}
102
{ACAD_REACTORS
330
29
102
}
330
29
100
AcDbVisualStyle
  2
Conceptual
 70
     9
 71
     3
 72
     2
 73
     0
 90
        0
 40
-0.6
 41
-30.0
 62
     5
 63
     7
421
 16777215
 74
     2
 91
        2
 64
     7
 65
   257
 75
     1
175
     1
 42
179.0
 92
        8
 66
     7
 43
1.0
 76
     1
 77
     6
 78
     2
 67
     7
 79
     3
170
     0
171
     0
290
     0
174
     0
 93
        1
 44
0.0
173
     0
291
     0
 45
0.0
1001
ACAD
1000
AcDbSavedByObjectVersion
1070
     0
  0
VISUALSTYLE
  5
34
102
{ACAD_XDICTIONARY
360
C1
102
}
102
{ACAD_REACTORS
330
29
102
}
330
29
100
AcDbVisualStyle
  2
Dim
 70
    11
 71
     2
 72
     2
 73
     0
 90
        0
 40
-0.6
 41
-30.0
 62
     5
 63
     7
421
 16777215
 74
     1
 91
        4
 64
     7
 65
   257
 75
     1
175
     1
 42
1.0
 92
        8
 66
     7
 43
1.0
 76
     1
 77
     6
 78
     2
 67
     7
 79
     5
170
     0
171
     0
290
     0
174
     0
 93
        1
 44
-50.0
173
     0
291
     1
 45
0.0
1001
ACAD
1000
AcDbSavedByObjectVersion
1070
     0
  0
VISUALSTYLE
  5
41
102
{ACAD_XDICTIONARY
360
DB
102
}
102
{ACAD_REACTORS
330
29
102
}
330
29
100
AcDbVisualStyle
  2
EdgeColorOff
 70
    22
 71
     2
 72
     2
 73
     0
 90
        0
 40
-0.6
 41
-30.0
 62
     5
 63
     7
421
 16777215
 74
     1
 91
        4
 64
     7
 65
   257
 75
     1
175
     1
 42
1.0
 92
        8
 66
     7
 43
1.0
 76
     1
 77
     6
 78
     2
 67
     7
 79
     5
170
     0
171
     0
290
     0
174
     0
 93
        1
 44
0.0
173
     0
291
     1
 45
0.0
1001
ACAD
1000
AcDbSavedByObjectVersion
1070
     0
  0
VISUALSTYLE
  5
38
102
{ACAD_XDICTIONARY
360
C9
102
}
102
{ACAD_REACTORS
330
29
102
}
330
29
100
AcDbVisualStyle
  2
Facepattern
 70
    15
 71
     2
 72
     2
 73
     0
 90
        0
 40
-0.6
 41
-30.0
 62
     5
 63
     7
421
 16777215
 74
     1
 91
        4
 64
     7
 65
   257
 75
     1
175
     1
 42
1.0
 92
        8
 66
     7
 43
1.0
 76
     1
 77
     6
 78
     2
 67
     7
 79
     5
170
     0
171
     0
290
     0
174
     0
 93
        1
 44
0.0
173
     0
291
     1
 45
0.0
1001
ACAD
1000
AcDbSavedByObjectVersion
1070
     0
  0
VISUALSTYLE
  5
2A
102
{ACAD_XDICTIONARY
360
AD
102
}
102
{ACAD_REACTORS
330
29
102
}
330
29
100
AcDbVisualStyle
  2
Flat
 70
     0
 71
     2
 72
     1
 73
     1
 90
        2
 40
-0.6
 41
30.0
 62
     5
 63
     7
421
 16777215
 74
     0
 91
        0
 64
     7
 65
   257
 75
     1
175
     1
 42
1.0
 92
        8
 66
     7
 43
1.0
 76
     1
 77
     6
 78
     2
 67
     7
 79
     5
170
     0
171
     0
290
     0
174
     0
 93
       13
 44
0.0
173
     0
291
     1
 45
0.0
1001
ACAD
1000
AcDbSavedByObjectVersion
1070
     0
  0
VISUALSTYLE
  5
2B
102
{ACAD_XDICTIONARY
360
AF
102
}
102
{ACAD_REACTORS
330
29
102
}
330
29
100
AcDbVisualStyle
  2
FlatWithEdges
 70
     1
 71
     2
 72
     1
 73
     1
 90
        2
 40
-0.6
 41
30.0
 62
     5
 63
     7
421
 16777215
 74
     1
 91
        0
 64
     7
 65
   257
 75
     1
175
     1
 42
1.0
 92
        0
 66
   257
 43
1.0
 76
     1
 77
     6
 78
     2
 67
     7
 79
     5
170
     0
171
     0
290
     0
174
     0
 93
       13
 44
0.0
173
     0
291
     1
 45
0.0
1001
ACAD
1000
AcDbSavedByObjectVersion
1070
     0
  0
VISUALSTYLE
  5
2C
102
{ACAD_XDICTIONARY
360
B1
102
}
102
{ACAD_REACTORS
330
29
102
}
330
29
100
AcDbVisualStyle
  2
Gouraud
 70
     2
 71
     2
 72
     2
 73
     1
 90
        2
 40
-0.6
 41
30.0
 62
     5
 63
     7
421
 16777215
 74
     0
 91
        0
 64
     7
 65
   257
 75
     1
175
     1
 42
1.0
 92
        0
 66
     7
 43
1.0
 76
     1
 77
     6
 78
     2
 67
     7
 79
     5
170
     0
171
     0
290
     0
174
     0
 93
       13
 44
0.0
173
     0
291
     1
 45
0.0
1001
ACAD
1000
AcDbSavedByObjectVersion
1070
     0
  0
VISUALSTYLE
  5
2D
102
{ACAD_XDICTIONARY
360
B3
102
}
102
{ACAD_REACTORS
330
29
102
}
330
29
100
AcDbVisualStyle
  2
GouraudWithEdges
 70
     3
 71
     2
 72
     2
 73
     1
 90
        2
 40
-0.6
 41
30.0
 62
     5
 63
     7
421
 16777215
 74
     1
 91
        0
 64
     7
 65
   257
 75
     1
175
     1
 42
1.0
 92
        0
 66
   257
 43
1.0
 76
     1
 77
     6
 78
     2
 67
     7
 79
     5
170
     0
171
     0
290
     0
174
     0
 93
       13
 44
0.0
173
     0
291
     1
 45
0.0
1001
ACAD
1000
AcDbSavedByObjectVersion
1070
     0
  0
VISUALSTYLE
  5
31
102
{ACAD_XDICTIONARY
360
BB
102
}
102
{ACAD_REACTORS
330
29
102
}
330
29
100
AcDbVisualStyle
  2
Hidden
 70
     6
 71
     1
 72
     2
 73
     2
 90
        0
 40
-0.6
 41
-30.0
 62
     5
 63
     7
421
 16777215
 74
     2
 91
        2
 64
     7
 65
   257
 75
     2
175
     1
 42
40.0
 92
        0
 66
   257
 43
1.0
 76
     1
 77
     6
 78
     2
 67
     7
 79
     3
170
     0
171
     0
290
     0
174
     0
 93
        1
 44
0.0
173
     0
291
     0
 45
0.0
1001
ACAD
1000
AcDbSavedByObjectVersion
1070
     0
  0
VISUALSTYLE
  5
3F
102
{ACAD_XDICTIONARY
360
D7
102
}
102
{ACAD_REACTORS
330
29
102
}
330
29
100
AcDbVisualStyle
  2
JitterOff
 70
    20
 71
     2
 72
     2
 73
     0
 90
        0
 40
-0.6
 41
-30.0
 62
     5
 63
     7
421
 16777215
 74
     1
 91
        4
 64
     7
 65
   257
 75
     1
175
     1
 42
1.0
 92
       10
 66
     7
 43
1.0
 76
     1
 77
     6
 78
     2
 67
     7
 79
     5
170
     0
171
     0
290
     0
174
     0
 93
        1
 44
0.0
173
     0
291
     1
 45
0.0
1001
ACAD
1000
AcDbSavedByObjectVersion
1070
     0
  0
VISUALSTYLE
  5
37
102
{ACAD_XDICTIONARY
360
C7
102
}
102
{ACAD_REACTORS
330
29
102
}
330
29
100
AcDbVisualStyle
  2
Linepattern
 70
    14
 71
     2
 72
     2
 73
     0
 90
        0
 40
-0.6
 41
-30.0
 62
     5
 63
     7
421
 16777215
 74
     1
 91
        4
 64
     7
 65
   257
 75
     7
175
     7
 42
1.0
 92
        8
 66
     7
 43
1.0
 76
     1
 77
     6
 78
     2
 67
     7
 79
     5
170
     0
171
     0
290
     0
174
     0
 93
        1
 44
0.0
173
     0
291
     1
 45
0.0
1001
ACAD
1000
AcDbSavedByObjectVersion
1070
     0
  0
VISUALSTYLE
  5
40
102
{ACAD_XDICTIONARY
360
D9
102
}
102
{ACAD_REACTORS
330
29
102
}
330
29
100
AcDbVisualStyle
  2
OverhangOff
 70
    21
 71
     2
 72
     2
 73
     0
 90
        0
 40
-0.6
 41
-30.0
 62
     5
 63
     7
421
 16777215
 74
     1
 91
        4
 64
     7
 65
   257
 75
     1
175
     1
 42
1.0
 92
        9
 66
     7
 43
1.0
 76
     1
 77
     6
 78
     2
 67
     7
 79
     5
170
     0
171
     0
290
     0
174
     0
 93
        1
 44
0.0
173
     0
291
     1
 45
0.0
1001
ACAD
1000
AcDbSavedByObjectVersion
1070
     0
  0
VISUALSTYLE
  5
33
102
{ACAD_XDICTIONARY
360
BF
102
}
102
{ACAD_REACTORS
330
29
102
}
330
29
100
AcDbVisualStyle
  2
Realistic
 70
     8
 71
     2
 72
     3
 73
     0
 90
        2
 40
-0.6
 41
30.0
 62
     5
 63
     7
421
 16777215
 74
     0
 91
        0
 64
     7
 65
   257
 75
     1
175
     1
 42
1.0
 92
        8
 66
   257
 43
1.0
 76
     1
 77
     6
 78
     2
 67
     7
 79
     3
170
     0
171
     0
290
     0
174
     0
 93
       13
 44
0.0
173
     0
291
     0
 45
0.0
1001
ACAD
1000
AcDbSavedByObjectVersion
1070
     0
  0
VISUALSTYLE
  5
3E
102
{ACAD_XDICTIONARY
360
D5
102
}
102
{ACAD_REACTORS
330
29
102
}
330
29
100
AcDbVisualStyle
  2
Shaded
 70
    27
 71
     2
 72
     2
 73
     1
 90
        2
 40
-0.6
 41
30.0
 62
     5
 63
     7
421
 16777215
 74
     0
 91
        4
 64
     7
 65
   257
 75
     1
175
     1
 42
1.0
 92
        8
 66
   257
 43
1.0
 76
     1
 77
     6
 78
     2
 67
     8
425
  7895160
 79
     3
170
     0
171
     0
290
     0
174
     0
 93
        5
 44
0.0
173
     0
291
     0
 45
0.0
1001
ACAD
1000
AcDbSavedByObjectVersion
1070
     0
  0
VISUALSTYLE
  5
3D
102
{ACAD_XDICTIONARY
360
D3
102
}
102
{ACAD_REACTORS
330
29
102
}
330
29
100
AcDbVisualStyle
  2
Shaded with edges
 70
    26
 71
     2
 72
     2
 73
     1
 90
        2
 40
-0.6
 41
30.0
 62
     5
 63
     7
421
 16777215
 74
     1
 91
        2
 64
     7
 65
   257
 75
     2
175
     1
 42
1.0
 92
        8
 66
   257
 43
1.0
 76
     1
 77
     6
 78
     2
 67
     7
 79
     3
170
     0
171
     0
290
     0
174
     0
 93
        5
 44
0.0
173
     0
291
     0
 45
0.0
1001
ACAD
1000
AcDbSavedByObjectVersion
1070
     0
  0
VISUALSTYLE
  5
3A
102
{ACAD_XDICTIONARY
360
CD
102
}
102
{ACAD_REACTORS
330
29
102
}
330
29
100
AcDbVisualStyle
  2
Shades of Gray
 70
    23
 71
     2
 72
     2
 73
     3
 90
        0
 40
-0.6
 41
-30.0
 62
     5
 63
     7
421
 16777215
 74
     2
 91
        2
 64
     7
 65
     7
 75
     1
175
     1
 42
40.0
 92
        8
 66
     7
 43
1.0
 76
     1
 77
     6
 78
     2
 67
     7
 79
     3
170
     0
171
     0
290
     0
174
     0
 93
        1
 44
0.0
173
     0
291
     0
 45
0.0
1001
ACAD
1000
AcDbSavedByObjectVersion
1070
     0
  0
VISUALSTYLE
  5
3B
102
{ACAD_XDICTIONARY
360
CF
102
}
102
{ACAD_REACTORS
330
29
102
}
330
29
100
AcDbVisualStyle
  2
Sketchy
 70
    24
 71
     1
 72
     2
 73
     2
 90
        0
 40
-0.6
 41
-30.0
 62
     5
 63
     7
421
 16777215
 74
     2
 91
        2
 64
     7
 65
     7
 75
     1
175
     1
 42
40.0
 92
       11
 66
     7
 43
1.0
 76
     1
 77
     6
 78
     2
 67
     7
 79
     6
170
     0
171
     0
290
     0
174
     0
 93
        1
 44
0.0
173
     0
291
     0
 45
0.0
1001
ACAD
1000
AcDbSavedByObjectVersion
1070
     0
  0
VISUALSTYLE
  5
36
102
{ACAD_XDICTIONARY
360
C5
102
}
102
{ACAD_REACTORS
330
29
102
}
330
29
100
AcDbVisualStyle
  2
Thicken
 70
    13
 71
     2
 72
     2
 73
     0
 90
        0
 40
-0.6
 41
-30.0
 62
     5
 63
     7
421
 16777215
 74
     1
 91
        4
 64
     7
 65
   257
 75
     1
175
     1
 42
1.0
 92
       12
 66
     7
 43
1.0
 76
     1
 77
     6
 78
     2
 67
     7
 79
     5
170
     0
171
     0
290
     0
174
     0
 93
        1
 44
0.0
173
     0
291
     1
 45
0.0
1001
ACAD
1000
AcDbSavedByObjectVersion
1070
     0
  0
VISUALSTYLE
  5
30
102
{ACAD_XDICTIONARY
360
B9
102
}
102
{ACAD_REACTORS
330
29
102
}
330
29
100
AcDbVisualStyle
  2
Wireframe
 70
     5
 71
     0
 72
     2
 73
     0
 90
        0
 40
-0.6
 41
-30.0
 62
     5
 63
     7
421
 16777215
 74
     1
 91
        4
 64
     7
 65
   257
 75
     1
175
     1
 42
1.0
 92
        0
 66
   257
 43
1.0
 76
     1
 77
     6
 78
     2
 67
     7
 79
     3
170
     0
171
     0
290
     0
174
     0
 93
        1
 44
0.0
173
     0
291
     0
 45
0.0
1001
ACAD
1000
AcDbSavedByObjectVersion
1070
     0
  0
VISUALSTYLE
  5
3C
102
{ACAD_XDICTIONARY
360
D1
102
}
102
{ACAD_REACTORS
330
29
102
}
330
29
100
AcDbVisualStyle
  2
X-Ray
 70
    25
 71
     2
 72
     2
 73
     1
 90
        1
 40
0.5
 41
-30.0
 62
     5
 63
     7
421
 16777215
 74
     1
 91
        0
 64
     7
 65
   257
 75
     1
175
     1
 42
1.0
 92
        8
 66
     7
 43
1.0
 76
     1
 77
     6
 78
     2
 67
     7
 79
     3
170
     0
171
     0
290
     0
174
     0
 93
       13
 44
0.0
173
     0
291
     0
 45
0.0
1001
ACAD
1000
AcDbSavedByObjectVersion
1070
     0
  0
DICTIONARYVAR
  5
A2
102
{ACAD_REACTORS
330
9C
102
}
330
9C
100
DictionaryVariables
280
     0
  1
1:1
  0
DICTIONARYVAR
  5
9E
102
{ACAD_REACTORS
330
9C
102
}
330
9C
100
DictionaryVariables
280
     0
  1
STANDARD
  0
DICTIONARYVAR
  5
9D
102
{ACAD_REACTORS
330
9C
102
}
330
9C
100
DictionaryVariables
280
     0
  1
STANDARD
  0
DICTIONARYVAR
  5
9F
102
{ACAD_REACTORS
330
9C
102
}
330
9C
100
DictionaryVariables
280
     0
  1
Imperial24
  0
DICTIONARYVAR
  5
A0
102
{ACAD_REACTORS
330
9C
102
}
330
9C
100
DictionaryVariables
280
     0
  1
Imperial24
  0
DICTIONARYVAR
  5
A4
102
{ACAD_REACTORS
330
9C
102
}
330
9C
100
DictionaryVariables
280
     0
  1
0
  0
DICTIONARYVAR
  5
A5
102
{ACAD_REACTORS
330
9C
102
}
330
9C
100
DictionaryVariables
280
     0
  1
0
  0
DICTIONARYVAR
  5
A3
102
{ACAD_REACTORS
330
9C
102
}
330
9C
100
DictionaryVariables
280
     0
  1
2
  0
DICTIONARYVAR
  5
A1
102
{ACAD_REACTORS
330
9C
102
}
330
9C
100
DictionaryVariables
280
     0
  1
1
  0
DICTIONARYVAR
  5
A6
102
{ACAD_REACTORS
330
9C
102
}
330
9C
100
DictionaryVariables
280
     0
  1
2
  0
DICTIONARY
  5
E3
330
6B
100
AcDbDictionary
280
     1
281
     1
  3
ACAD_XREC_ROUNDTRIP
360
E4
  0
DICTIONARY
  5
1A
330
19
100
AcDbDictionary
280
     1
281
     1
  3
ACAD_XREC_ROUNDTRIP
360
AB
  3
BUMPTILE
360
1C
  3
DIFFUSETILE
360
1B
  3
OPACITYTILE
360
1F
  3
REFLECTIONTILE
360
1E
  3
REFRACTIONTILE
360
20
  3
SPECULARTILE
360
1D
  0
DICTIONARY
  5
12
330
11
100
AcDbDictionary
280
     1
281
     1
  3
ACAD_XREC_ROUNDTRIP
360
AA
  3
BUMPTILE
360
14
  3
DIFFUSETILE
360
13
  3
OPACITYTILE
360
17
  3
REFLECTIONTILE
360
16
  3
REFRACTIONTILE
360
18
  3
SPECULARTILE
360
15
  0
DICTIONARY
  5
22
330
21
100
AcDbDictionary
280
     1
281
     1
  3
ACAD_XREC_ROUNDTRIP
360
AC
  3
BUMPTILE
360
24
  3
DIFFUSETILE
360
23
  3
OPACITYTILE
360
27
  3
REFLECTIONTILE
360
26
  3
REFRACTIONTILE
360
28
  3
SPECULARTILE
360
25
  0
DICTIONARY
  5
DF
330
67
100
AcDbDictionary
280
     1
281
     1
  3
ACAD_XREC_ROUNDTRIP
360
E0
  0
DICTIONARY
  5
E1
330
69
100
AcDbDictionary
280
     1
281
     1
  3
ACAD_XREC_ROUNDTRIP
360
E2
  0
DICTIONARY
  5
A7
330
65
100
AcDbDictionary
280
     1
281
     1
  3
ACAD_ROUNDTRIP_2008_TABLESTYLE_CELLSTYLEMAP
360
A8
  3
ACAD_XREC_ROUNDTRIP
360
DD
  0
DICTIONARY
  5
B7
330
2F
100
AcDbDictionary
280
     1
281
     1
  3
ACAD_XREC_ROUNDTRIP
360
B8
  0
DICTIONARY
  5
B5
330
2E
100
AcDbDictionary
280
     1
281
     1
  3
ACAD_XREC_ROUNDTRIP
360
B6
  0
DICTIONARY
  5
C3
330
35
100
AcDbDictionary
280
     1
281
     1
  3
ACAD_XREC_ROUNDTRIP
360
C4
  0
DICTIONARY
  5
CB
330
39
100
AcDbDictionary
280
     1
281
     1
  3
ACAD_XREC_ROUNDTRIP
360
CC
  0
DICTIONARY
  5
BD
330
32
100
AcDbDictionary
280
     1
281
     1
  3
ACAD_XREC_ROUNDTRIP
360
BE
  0
DICTIONARY
  5
C1
330
34
100
AcDbDictionary
280
     1
281
     1
  3
ACAD_XREC_ROUNDTRIP
360
C2
  0
DICTIONARY
  5
DB
330
41
100
AcDbDictionary
280
     1
281
     1
  3
ACAD_XREC_ROUNDTRIP
360
DC
  0
DICTIONARY
  5
C9
330
38
100
AcDbDictionary
280
     1
281
     1
  3
ACAD_XREC_ROUNDTRIP
360
CA
  0
DICTIONARY
  5
AD
330
2A
100
AcDbDictionary
280
     1
281
     1
  3
ACAD_XREC_ROUNDTRIP
360
AE
  0
DICTIONARY
  5
AF
330
2B
100
AcDbDictionary
280
     1
281
     1
  3
ACAD_XREC_ROUNDTRIP
360
B0
  0
DICTIONARY
  5
B1
330
2C
100
AcDbDictionary
280
     1
281
     1
  3
ACAD_XREC_ROUNDTRIP
360
B2
  0
DICTIONARY
  5
B3
330
2D
100
AcDbDictionary
280
     1
281
     1
  3
ACAD_XREC_ROUNDTRIP
360
B4
  0
DICTIONARY
  5
BB
330
31
100
AcDbDictionary
280
     1
281
     1
  3
ACAD_XREC_ROUNDTRIP
360
BC
  0
DICTIONARY
  5
D7
330
3F
100
AcDbDictionary
280
     1
281
     1
  3
ACAD_XREC_ROUNDTRIP
360
D8
  0
DICTIONARY
  5
C7
330
37
100
AcDbDictionary
280
     1
281
     1
  3
ACAD_XREC_ROUNDTRIP
360
C8
  0
DICTIONARY
  5
D9
330
40
100
AcDbDictionary
280
     1
281
     1
  3
ACAD_XREC_ROUNDTRIP
360
DA
  0
DICTIONARY
  5
BF
330
33
100
AcDbDictionary
280
     1
281
     1
  3
ACAD_XREC_ROUNDTRIP
360
C0
  0
DICTIONARY
  5
D5
330
3E
100
AcDbDictionary
280
     1
281
     1
  3
ACAD_XREC_ROUNDTRIP
360
D6
  0
DICTIONARY
  5
D3
330
3D
100
AcDbDictionary
280
     1
281
     1
  3
ACAD_XREC_ROUNDTRIP
360
D4
  0
DICTIONARY
  5
CD
330
3A
100
AcDbDictionary
280
     1
281
     1
  3
ACAD_XREC_ROUNDTRIP
360
CE
  0
DICTIONARY
  5
CF
330
3B
100
AcDbDictionary
280
     1
281
     1
  3
ACAD_XREC_ROUNDTRIP
360
D0
  0
DICTIONARY
  5
C5
330
36
100
AcDbDictionary
280
     1
281
     1
  3
ACAD_XREC_ROUNDTRIP
360
C6
  0
DICTIONARY
  5
B9
330
30
100
AcDbDictionary
280
     1
281
     1
  3
ACAD_XREC_ROUNDTRIP
360
BA
  0
DICTIONARY
  5
D1
330
3C
100
AcDbDictionary
280
     1
281
     1
  3
ACAD_XREC_ROUNDTRIP
360
D2
  0
XRECORD
  5
E4
102
{ACAD_REACTORS
330
E3
102
}
330
E3
100
AcDbXrecord
280
     1
102
DISPLAYNAME
  1
Imperial24
102
FLAGS
 90
        0
  0
XRECORD
  5
AB
102
{ACAD_REACTORS
330
1A
102
}
330
1A
100
AcDbXrecord
280
     1
102
MATERIAL
148
0.0
149
0.0
149
0.0
 93
        0
 94
      127
282
     0
 72
     0
 77
     0
171
     0
175
     0
179
     0
273
     0
  0
XRECORD
  5
1C
102
{ACAD_REACTORS
330
1A
102
}
330
1A
100
AcDbXrecord
280
     1
270
     1
271
     1
  0
XRECORD
  5
1B
102
{ACAD_REACTORS
330
1A
102
}
330
1A
100
AcDbXrecord
280
     1
270
     1
271
     1
  0
XRECORD
  5
1F
102
{ACAD_REACTORS
330
1A
102
}
330
1A
100
AcDbXrecord
280
     1
270
     1
271
     1
  0
XRECORD
  5
1E
102
{ACAD_REACTORS
330
1A
102
}
330
1A
100
AcDbXrecord
280
     1
270
     1
271
     1
  0
XRECORD
  5
20
102
{ACAD_REACTORS
330
1A
102
}
330
1A
100
AcDbXrecord
280
     1
270
     1
271
     1
  0
XRECORD
  5
1D
102
{ACAD_REACTORS
330
1A
102
}
330
1A
100
AcDbXrecord
280
     1
270
     1
271
     1
  0
XRECORD
  5
AA
102
{ACAD_REACTORS
330
12
102
}
330
12
100
AcDbXrecord
280
     1
102
MATERIAL
148
0.0
149
0.0
149
0.0
 93
        0
 94
      127
282
     0
 72
     0
 77
     0
171
     0
175
     0
179
     0
273
     0
  0
XRECORD
  5
14
102
{ACAD_REACTORS
330
12
102
}
330
12
100
AcDbXrecord
280
     1
270
     1
271
     1
  0
XRECORD
  5
13
102
{ACAD_REACTORS
330
12
102
}
330
12
100
AcDbXrecord
280
     1
270
     1
271
     1
  0
XRECORD
  5
17
102
{ACAD_REACTORS
330
12
102
}
330
12
100
AcDbXrecord
280
     1
270
     1
271
     1
  0
XRECORD
  5
16
102
{ACAD_REACTORS
330
12
102
}
330
12
100
AcDbXrecord
280
     1
270
     1
271
     1
  0
XRECORD
  5
18
102
{ACAD_REACTORS
330
12
102
}
330
12
100
AcDbXrecord
280
     1
270
     1
271
     1
  0
XRECORD
  5
15
102
{ACAD_REACTORS
330
12
102
}
330
12
100
AcDbXrecord
280
     1
270
     1
271
     1
  0
XRECORD
  5
AC
102
{ACAD_REACTORS
330
22
102
}
330
22
100
AcDbXrecord
280
     1
102
MATERIAL
148
0.0
149
0.0
149
0.0
 93
        0
 94
      127
282
     0
 72
     0
 77
     0
171
     0
175
     0
179
     0
273
     0
  0
XRECORD
  5
24
102
{ACAD_REACTORS
330
22
102
}
330
22
100
AcDbXrecord
280
     1
270
     1
271
     1
  0
XRECORD
  5
23
102
{ACAD_REACTORS
330
22
102
}
330
22
100
AcDbXrecord
280
     1
270
     1
271
     1
  0
XRECORD
  5
27
102
{ACAD_REACTORS
330
22
102
}
330
22
100
AcDbXrecord
280
     1
270
     1
271
     1
  0
XRECORD
  5
26
102
{ACAD_REACTORS
330
22
102
}
330
22
100
AcDbXrecord
280
     1
270
     1
271
     1
  0
XRECORD
  5
28
102
{ACAD_REACTORS
330
22
102
}
330
22
100
AcDbXrecord
280
     1
270
     1
271
     1
  0
XRECORD
  5
25
102
{ACAD_REACTORS
330
22
102
}
330
22
100
AcDbXrecord
280
     1
270
     1
271
     1
  0
XRECORD
  5
E0
102
{ACAD_REACTORS
330
DF
102
}
330
DF
100
AcDbXrecord
280
     1
102
ACAD_ROUNDTRIP_2012_MLEADER_STYLE
298
     1
  0
XRECORD
  5
E2
102
{ACAD_REACTORS
330
E1
102
}
330
E1
100
AcDbXrecord
280
     1
102
DISPLAYNAME
  1
Imperial24
102
FLAGS
 90
        0
  0
CELLSTYLEMAP
  5
A8
102
{ACAD_REACTORS
330
A7
102
}
330
A7
100
AcDbCellStyleMap
 90
        3
300
CELLSTYLE
  1
TABLEFORMAT_BEGIN
 90
        5
170
     1
 91
        0
 92
    32768
 62
   257
 93
        1
300
CONTENTFORMAT
  1
CONTENTFORMAT_BEGIN
 90
        0
 91
        0
 92
      512
 93
        0
300

 40
0.0
140
1.0
 94
        5
 62
     0
340
55
144
0.25
309
CONTENTFORMAT_END
171
     0
 94
        0
309
TABLEFORMAT_END
  1
CELLSTYLE_BEGIN
 90
        1
 91
        1
300
_TITLE
309
CELLSTYLE_END
300
CELLSTYLE
  1
TABLEFORMAT_BEGIN
 90
        5
170
     1
 91
        0
 92
        0
 62
   257
 93
        1
300
CONTENTFORMAT
  1
CONTENTFORMAT_BEGIN
 90
        0
 91
        0
 92
      512
 93
        0
300

 40
0.0
140
1.0
 94
        5
 62
     0
340
55
144
0.18
309
CONTENTFORMAT_END
171
     0
 94
        0
309
TABLEFORMAT_END
  1
CELLSTYLE_BEGIN
 90
        2
 91
        1
300
_HEADER
309
CELLSTYLE_END
300
CELLSTYLE
  1
TABLEFORMAT_BEGIN
 90
        5
170
     1
 91
        0
 92
        0
 62
   257
 93
        1
300
CONTENTFORMAT
  1
CONTENTFORMAT_BEGIN
 90
        0
 91
        0
 92
      512
 93
        0
300

 40
0.0
140
1.0
 94
        2
 62
     0
340
55
144
0.18
309
CONTENTFORMAT_END
171
     0
 94
        0
309
TABLEFORMAT_END
  1
CELLSTYLE_BEGIN
 90
        3
 91
        2
300
_DATA
309
CELLSTYLE_END
  0
XRECORD
  5
DD
102
{ACAD_REACTORS
330
A7
102
}
330
A7
100
AcDbXrecord
280
     1
102
ACAD_ROUNDTRIP_PRE2007_TABLESTYLE
 90
      512
 91
        0
  1

 92
      512
 93
        0
  2

 94
      512
 95
        0
  3

  0
XRECORD
  5
B8
102
{ACAD_REACTORS
330
B7
102
}
330
B7
100
AcDbXrecord
280
     1
102
RTVSPost2010Prop28
280
     1
102
RTVSPost2010PropOp28
 70
     1
102
RTVSPost2010Prop29
280
     1
102
RTVSPost2010PropOp29
 70
     1
102
RTVSPost2010Prop30
280
     0
102
RTVSPost2010PropOp30
 70
     1
102
RTVSPost2010Prop31
280
     0
102
RTVSPost2010PropOp31
 70
     1
102
RTVSPost2010Prop32
280
     0
102
RTVSPost2010PropOp32
 70
     1
102
RTVSPost2010Prop33
280
     0
102
RTVSPost2010PropOp33
 70
     1
102
RTVSPost2010Prop34
280
     0
102
RTVSPost2010PropOp34
 70
     1
102
RTVSPost2010Prop35
280
     0
102
RTVSPost2010PropOp35
 70
     1
102
RTVSPost2010Prop36
280
     0
102
RTVSPost2010PropOp36
 70
     1
102
RTVSPost2010Prop37
 90
       50
102
RTVSPost2010PropOp37
 70
     1
102
RTVSPost2010Prop38
140
0.0
102
RTVSPost2010PropOp38
 70
     1
102
RTVSPost2010Prop39
140
1.0
102
RTVSPost2010PropOp39
 70
     1
102
RTVSPost2010Prop40
 90
        0
102
RTVSPost2010PropOp40
 70
     1
102
RTVSPost2010Prop41ColorIndex
 90
       18
102
RTVSPost2010Prop41ColorRGB
 90
        0
102
RTVSPost2010PropOp41
 70
     1
102
RTVSPost2010Prop42
 90
       50
102
RTVSPost2010PropOp42
 70
     1
102
RTVSPost2010Prop43
 90
        3
102
RTVSPost2010PropOp43
 70
     1
102
RTVSPost2010Prop44ColorIndex
 90
        5
102
RTVSPost2010Prop44ColorRGB
 90
      255
102
RTVSPost2010PropOp44
 70
     1
102
RTVSPost2010Prop45
280
     0
102
RTVSPost2010PropOp45
 70
     1
102
RTVSPost2010Prop46
 90
       50
102
RTVSPost2010PropOp46
 70
     1
102
RTVSPost2010Prop47
 90
       50
102
RTVSPost2010PropOp47
 70
     1
102
RTVSPost2010Prop48
 90
       50
102
RTVSPost2010PropOp48
 70
     1
102
RTVSPost2010Prop49
280
     0
102
RTVSPost2010PropOp49
 70
     1
102
RTVSPost2010Prop50
 90
       50
102
RTVSPost2010PropOp50
 70
     1
102
RTVSPost2010Prop51ColorIndex
 90
      256
102
RTVSPost2010Prop51ColorRGB
 90
-16777216
102
RTVSPost2010PropOp51
 70
     0
102
RTVSPost2010Prop52
140
1.0
102
RTVSPost2010PropOp52
 70
     0
102
RTVSPost2010Prop53
 90
        2
102
RTVSPost2010PropOp53
 70
     1
102
RTVSPost2010Prop54
  1
strokes_ogs.tif
102
RTVSPost2010PropOp54
 70
     1
102
RTVSPost2010Prop55
280
     0
102
RTVSPost2010PropOp55
 70
     1
102
RTVSPost2010Prop56
140
1.0
102
RTVSPost2010PropOp56
 70
     1
102
RTVSPost2010Prop57
140
1.0
102
RTVSPost2010PropOp57
 70
     1
102
RTVSPropertyOp0
 70
     1
102
RTVSPropertyOp1
 70
     1
102
RTVSPropertyOp2
 70
     1
102
RTVSPropertyOp3
 70
     1
102
RTVSPropertyOp4
 70
     1
102
RTVSPropertyOp5
 70
     1
102
RTVSPropertyOp6
 70
     1
102
RTVSPropertyOp7
 70
     1
102
RTVSPropertyOp8
 70
     1
102
RTVSPropertyOp9
 70
     1
102
RTVSPropertyOp10
 70
     1
102
RTVSPropertyOp11
 70
     1
102
RTVSPropertyOp12
 70
     1
102
RTVSPropertyOp13
 70
     1
102
RTVSPropertyOp14
 70
     1
102
RTVSPropertyOp15
 70
     1
102
RTVSPropertyOp16
 70
     1
102
RTVSPropertyOp17
 70
     1
102
RTVSPropertyOp18
 70
     1
102
RTVSPropertyOp19
 70
     1
102
RTVSPropertyOp20
 70
     1
102
RTVSPropertyOp21
 70
     1
102
RTVSPropertyOp22
 70
     1
102
RTVSPropertyOp23
 70
     1
102
RTVSPropertyOp24
 70
     1
102
RTVSPropertyOp25
 70
     1
102
RTVSPropertyOp26
 70
     1
102
RTVSPropertyOp27
 70
     1
102
RTVSPropertyOp28
 70
     1
102
RTVSPropertyOp29
 70
     1
102
RTVSPropertyOp30
 70
     1
102
RTVSPropertyOp31
 70
     1
102
RTVSPropertyOp32
 70
     1
102
RTVSPropertyOp33
 70
     1
102
RTVSPropertyOp34
 70
     1
102
RTVSPropertyOp35
 70
     1
102
RTVSPropertyOp36
 70
     1
102
RTVSPropertyOp37
 70
     1
102
RTVSPropertyOp38
 70
     1
102
RTVSPropertyOp39
 70
     1
102
RTVSPropertyOp40
 70
     1
102
RTVSPropertyOp41
 70
     1
102
RTVSPropertyOp42
 70
     1
102
RTVSPropertyOp43
 70
     1
102
RTVSPropertyOp44
 70
     1
102
RTVSPropertyOp45
 70
     1
102
RTVSPropertyOp46
 70
     1
102
RTVSPropertyOp47
 70
     1
102
RTVSPropertyOp48
 70
     1
102
RTVSPropertyOp49
 70
     1
102
RTVSPropertyOp50
 70
     1
102
RTVSPropertyOp51
 70
     0
102
RTVSPropertyOp52
 70
     0
102
RTVSPropertyOp53
 70
     1
102
RTVSPropertyOp54
 70
     1
102
RTVSPropertyOp55
 70
     1
102
RTVSPropertyOp56
 70
     1
102
RTVSPropertyOp57
 70
     1
102
RTVSPropertyOp58
 70
     1
102
RTVSPropertyOp59
 70
     1
102
RTVSPropertyOp60
 70
     1
102
RTVSPropertyOp61
 70
     1
102
RTVSPropertyOp62
 70
     1
  0
XRECORD
  5
B6
102
{ACAD_REACTORS
330
B5
102
}
330
B5
100
AcDbXrecord
280
     1
102
RTVSPost2010Prop28
280
     0
102
RTVSPost2010PropOp28
 70
     1
102
RTVSPost2010Prop29
280
     1
102
RTVSPost2010PropOp29
 70
     1
102
RTVSPost2010Prop30
280
     1
102
RTVSPost2010PropOp30
 70
     1
102
RTVSPost2010Prop31
280
     0
102
RTVSPost2010PropOp31
 70
     1
102
RTVSPost2010Prop32
280
     0
102
RTVSPost2010PropOp32
 70
     1
102
RTVSPost2010Prop33
280
     0
102
RTVSPost2010PropOp33
 70
     1
102
RTVSPost2010Prop34
280
     0
102
RTVSPost2010PropOp34
 70
     1
102
RTVSPost2010Prop35
280
     0
102
RTVSPost2010PropOp35
 70
     1
102
RTVSPost2010Prop36
280
     0
102
RTVSPost2010PropOp36
 70
     1
102
RTVSPost2010Prop37
 90
       50
102
RTVSPost2010PropOp37
 70
     1
102
RTVSPost2010Prop38
140
0.0
102
RTVSPost2010PropOp38
 70
     1
102
RTVSPost2010Prop39
140
1.0
102
RTVSPost2010PropOp39
 70
     1
102
RTVSPost2010Prop40
 90
        0
102
RTVSPost2010PropOp40
 70
     1
102
RTVSPost2010Prop41ColorIndex
 90
       18
102
RTVSPost2010Prop41ColorRGB
 90
        0
102
RTVSPost2010PropOp41
 70
     1
102
RTVSPost2010Prop42
 90
       50
102
RTVSPost2010PropOp42
 70
     1
102
RTVSPost2010Prop43
 90
        3
102
RTVSPost2010PropOp43
 70
     1
102
RTVSPost2010Prop44ColorIndex
 90
        5
102
RTVSPost2010Prop44ColorRGB
 90
      255
102
RTVSPost2010PropOp44
 70
     1
102
RTVSPost2010Prop45
280
     0
102
RTVSPost2010PropOp45
 70
     1
102
RTVSPost2010Prop46
 90
       50
102
RTVSPost2010PropOp46
 70
     1
102
RTVSPost2010Prop47
 90
       50
102
RTVSPost2010PropOp47
 70
     1
102
RTVSPost2010Prop48
 90
       50
102
RTVSPost2010PropOp48
 70
     1
102
RTVSPost2010Prop49
280
     0
102
RTVSPost2010PropOp49
 70
     1
102
RTVSPost2010Prop50
 90
       50
102
RTVSPost2010PropOp50
 70
     1
102
RTVSPost2010Prop51ColorIndex
 90
      256
102
RTVSPost2010Prop51ColorRGB
 90
-16777216
102
RTVSPost2010PropOp51
 70
     0
102
RTVSPost2010Prop52
140
1.0
102
RTVSPost2010PropOp52
 70
     0
102
RTVSPost2010Prop53
 90
        2
102
RTVSPost2010PropOp53
 70
     1
102
RTVSPost2010Prop54
  1
strokes_ogs.tif
102
RTVSPost2010PropOp54
 70
     1
102
RTVSPost2010Prop55
280
     0
102
RTVSPost2010PropOp55
 70
     1
102
RTVSPost2010Prop56
140
1.0
102
RTVSPost2010PropOp56
 70
     1
102
RTVSPost2010Prop57
140
1.0
102
RTVSPost2010PropOp57
 70
     1
102
RTVSPropertyOp0
 70
     1
102
RTVSPropertyOp1
 70
     1
102
RTVSPropertyOp2
 70
     1
102
RTVSPropertyOp3
 70
     1
102
RTVSPropertyOp4
 70
     1
102
RTVSPropertyOp5
 70
     1
102
RTVSPropertyOp6
 70
     1
102
RTVSPropertyOp7
 70
     1
102
RTVSPropertyOp8
 70
     1
102
RTVSPropertyOp9
 70
     1
102
RTVSPropertyOp10
 70
     1
102
RTVSPropertyOp11
 70
     1
102
RTVSPropertyOp12
 70
     1
102
RTVSPropertyOp13
 70
     1
102
RTVSPropertyOp14
 70
     1
102
RTVSPropertyOp15
 70
     1
102
RTVSPropertyOp16
 70
     1
102
RTVSPropertyOp17
 70
     1
102
RTVSPropertyOp18
 70
     1
102
RTVSPropertyOp19
 70
     1
102
RTVSPropertyOp20
 70
     1
102
RTVSPropertyOp21
 70
     1
102
RTVSPropertyOp22
 70
     1
102
RTVSPropertyOp23
 70
     1
102
RTVSPropertyOp24
 70
     1
102
RTVSPropertyOp25
 70
     1
102
RTVSPropertyOp26
 70
     1
102
RTVSPropertyOp27
 70
     1
102
RTVSPropertyOp28
 70
     1
102
RTVSPropertyOp29
 70
     1
102
RTVSPropertyOp30
 70
     1
102
RTVSPropertyOp31
 70
     1
102
RTVSPropertyOp32
 70
     1
102
RTVSPropertyOp33
 70
     1
102
RTVSPropertyOp34
 70
     1
102
RTVSPropertyOp35
 70
     1
102
RTVSPropertyOp36
 70
     1
102
RTVSPropertyOp37
 70
     1
102
RTVSPropertyOp38
 70
     1
102
RTVSPropertyOp39
 70
     1
102
RTVSPropertyOp40
 70
     1
102
RTVSPropertyOp41
 70
     1
102
RTVSPropertyOp42
 70
     1
102
RTVSPropertyOp43
 70
     1
102
RTVSPropertyOp44
 70
     1
102
RTVSPropertyOp45
 70
     1
102
RTVSPropertyOp46
 70
     1
102
RTVSPropertyOp47
 70
     1
102
RTVSPropertyOp48
 70
     1
102
RTVSPropertyOp49
 70
     1
102
RTVSPropertyOp50
 70
     1
102
RTVSPropertyOp51
 70
     0
102
RTVSPropertyOp52
 70
     0
102
RTVSPropertyOp53
 70
     1
102
RTVSPropertyOp54
 70
     1
102
RTVSPropertyOp55
 70
     1
102
RTVSPropertyOp56
 70
     1
102
RTVSPropertyOp57
 70
     1
102
RTVSPropertyOp58
 70
     1
102
RTVSPropertyOp59
 70
     1
102
RTVSPropertyOp60
 70
     1
102
RTVSPropertyOp61
 70
     1
102
RTVSPropertyOp62
 70
     1
  0
XRECORD
  5
C4
102
{ACAD_REACTORS
330
C3
102
}
330
C3
100
AcDbXrecord
280
     1
102
RTVSPost2010Prop28
280
     0
102
RTVSPost2010PropOp28
 70
     1
102
RTVSPost2010Prop29
280
     1
102
RTVSPost2010PropOp29
 70
     1
102
RTVSPost2010Prop30
280
     1
102
RTVSPost2010PropOp30
 70
     1
102
RTVSPost2010Prop31
280
     0
102
RTVSPost2010PropOp31
 70
     1
102
RTVSPost2010Prop32
280
     0
102
RTVSPost2010PropOp32
 70
     1
102
RTVSPost2010Prop33
280
     0
102
RTVSPost2010PropOp33
 70
     1
102
RTVSPost2010Prop34
280
     0
102
RTVSPost2010PropOp34
 70
     1
102
RTVSPost2010Prop35
280
     0
102
RTVSPost2010PropOp35
 70
     1
102
RTVSPost2010Prop36
280
     0
102
RTVSPost2010PropOp36
 70
     1
102
RTVSPost2010Prop37
 90
       50
102
RTVSPost2010PropOp37
 70
     1
102
RTVSPost2010Prop38
140
0.0
102
RTVSPost2010PropOp38
 70
     1
102
RTVSPost2010Prop39
140
1.0
102
RTVSPost2010PropOp39
 70
     1
102
RTVSPost2010Prop40
 90
        0
102
RTVSPost2010PropOp40
 70
     1
102
RTVSPost2010Prop41ColorIndex
 90
       18
102
RTVSPost2010Prop41ColorRGB
 90
        0
102
RTVSPost2010PropOp41
 70
     1
102
RTVSPost2010Prop42
 90
       50
102
RTVSPost2010PropOp42
 70
     1
102
RTVSPost2010Prop43
 90
        3
102
RTVSPost2010PropOp43
 70
     1
102
RTVSPost2010Prop44ColorIndex
 90
        5
102
RTVSPost2010Prop44ColorRGB
 90
      255
102
RTVSPost2010PropOp44
 70
     1
102
RTVSPost2010Prop45
280
     0
102
RTVSPost2010PropOp45
 70
     1
102
RTVSPost2010Prop46
 90
       50
102
RTVSPost2010PropOp46
 70
     1
102
RTVSPost2010Prop47
 90
       50
102
RTVSPost2010PropOp47
 70
     1
102
RTVSPost2010Prop48
 90
       50
102
RTVSPost2010PropOp48
 70
     1
102
RTVSPost2010Prop49
280
     0
102
RTVSPost2010PropOp49
 70
     1
102
RTVSPost2010Prop50
 90
       50
102
RTVSPost2010PropOp50
 70
     1
102
RTVSPost2010Prop51ColorIndex
 90
      256
102
RTVSPost2010Prop51ColorRGB
 90
-16777216
102
RTVSPost2010PropOp51
 70
     0
102
RTVSPost2010Prop52
140
1.0
102
RTVSPost2010PropOp52
 70
     0
102
RTVSPost2010Prop53
 90
        2
102
RTVSPost2010PropOp53
 70
     1
102
RTVSPost2010Prop54
  1
strokes_ogs.tif
102
RTVSPost2010PropOp54
 70
     1
102
RTVSPost2010Prop55
280
     0
102
RTVSPost2010PropOp55
 70
     1
102
RTVSPost2010Prop56
140
1.0
102
RTVSPost2010PropOp56
 70
     1
102
RTVSPost2010Prop57
140
1.0
102
RTVSPost2010PropOp57
 70
     1
102
RTVSPropertyOp0
 70
     1
102
RTVSPropertyOp1
 70
     1
102
RTVSPropertyOp2
 70
     1
102
RTVSPropertyOp3
 70
     1
102
RTVSPropertyOp4
 70
     1
102
RTVSPropertyOp5
 70
     1
102
RTVSPropertyOp6
 70
     1
102
RTVSPropertyOp7
 70
     1
102
RTVSPropertyOp8
 70
     1
102
RTVSPropertyOp9
 70
     1
102
RTVSPropertyOp10
 70
     1
102
RTVSPropertyOp11
 70
     1
102
RTVSPropertyOp12
 70
     1
102
RTVSPropertyOp13
 70
     1
102
RTVSPropertyOp14
 70
     1
102
RTVSPropertyOp15
 70
     1
102
RTVSPropertyOp16
 70
     1
102
RTVSPropertyOp17
 70
     1
102
RTVSPropertyOp18
 70
     1
102
RTVSPropertyOp19
 70
     1
102
RTVSPropertyOp20
 70
     1
102
RTVSPropertyOp21
 70
     1
102
RTVSPropertyOp22
 70
     1
102
RTVSPropertyOp23
 70
     1
102
RTVSPropertyOp24
 70
     1
102
RTVSPropertyOp25
 70
     1
102
RTVSPropertyOp26
 70
     1
102
RTVSPropertyOp27
 70
     1
102
RTVSPropertyOp28
 70
     1
102
RTVSPropertyOp29
 70
     1
102
RTVSPropertyOp30
 70
     1
102
RTVSPropertyOp31
 70
     1
102
RTVSPropertyOp32
 70
     1
102
RTVSPropertyOp33
 70
     1
102
RTVSPropertyOp34
 70
     1
102
RTVSPropertyOp35
 70
     1
102
RTVSPropertyOp36
 70
     1
102
RTVSPropertyOp37
 70
     1
102
RTVSPropertyOp38
 70
     1
102
RTVSPropertyOp39
 70
     1
102
RTVSPropertyOp40
 70
     1
102
RTVSPropertyOp41
 70
     1
102
RTVSPropertyOp42
 70
     1
102
RTVSPropertyOp43
 70
     1
102
RTVSPropertyOp44
 70
     1
102
RTVSPropertyOp45
 70
     1
102
RTVSPropertyOp46
 70
     1
102
RTVSPropertyOp47
 70
     1
102
RTVSPropertyOp48
 70
     1
102
RTVSPropertyOp49
 70
     1
102
RTVSPropertyOp50
 70
     1
102
RTVSPropertyOp51
 70
     0
102
RTVSPropertyOp52
 70
     0
102
RTVSPropertyOp53
 70
     1
102
RTVSPropertyOp54
 70
     1
102
RTVSPropertyOp55
 70
     1
102
RTVSPropertyOp56
 70
     1
102
RTVSPropertyOp57
 70
     1
102
RTVSPropertyOp58
 70
     1
102
RTVSPropertyOp59
 70
     1
102
RTVSPropertyOp60
 70
     1
102
RTVSPropertyOp61
 70
     1
102
RTVSPropertyOp62
 70
     1
  0
XRECORD
  5
CC
102
{ACAD_REACTORS
330
CB
102
}
330
CB
100
AcDbXrecord
280
     1
102
RTVSPost2010Prop28
280
     0
102
RTVSPost2010PropOp28
 70
     1
102
RTVSPost2010Prop29
280
     1
102
RTVSPost2010PropOp29
 70
     1
102
RTVSPost2010Prop30
280
     1
102
RTVSPost2010PropOp30
 70
     1
102
RTVSPost2010Prop31
280
     0
102
RTVSPost2010PropOp31
 70
     1
102
RTVSPost2010Prop32
280
     0
102
RTVSPost2010PropOp32
 70
     1
102
RTVSPost2010Prop33
280
     0
102
RTVSPost2010PropOp33
 70
     1
102
RTVSPost2010Prop34
280
     0
102
RTVSPost2010PropOp34
 70
     1
102
RTVSPost2010Prop35
280
     0
102
RTVSPost2010PropOp35
 70
     1
102
RTVSPost2010Prop36
280
     0
102
RTVSPost2010PropOp36
 70
     1
102
RTVSPost2010Prop37
 90
       50
102
RTVSPost2010PropOp37
 70
     1
102
RTVSPost2010Prop38
140
0.0
102
RTVSPost2010PropOp38
 70
     1
102
RTVSPost2010Prop39
140
1.0
102
RTVSPost2010PropOp39
 70
     1
102
RTVSPost2010Prop40
 90
        0
102
RTVSPost2010PropOp40
 70
     1
102
RTVSPost2010Prop41ColorIndex
 90
       18
102
RTVSPost2010Prop41ColorRGB
 90
        0
102
RTVSPost2010PropOp41
 70
     1
102
RTVSPost2010Prop42
 90
       50
102
RTVSPost2010PropOp42
 70
     1
102
RTVSPost2010Prop43
 90
        3
102
RTVSPost2010PropOp43
 70
     1
102
RTVSPost2010Prop44ColorIndex
 90
        5
102
RTVSPost2010Prop44ColorRGB
 90
      255
102
RTVSPost2010PropOp44
 70
     1
102
RTVSPost2010Prop45
280
     0
102
RTVSPost2010PropOp45
 70
     1
102
RTVSPost2010Prop46
 90
       50
102
RTVSPost2010PropOp46
 70
     1
102
RTVSPost2010Prop47
 90
       50
102
RTVSPost2010PropOp47
 70
     1
102
RTVSPost2010Prop48
 90
       50
102
RTVSPost2010PropOp48
 70
     1
102
RTVSPost2010Prop49
280
     0
102
RTVSPost2010PropOp49
 70
     1
102
RTVSPost2010Prop50
 90
       50
102
RTVSPost2010PropOp50
 70
     1
102
RTVSPost2010Prop51ColorIndex
 90
      256
102
RTVSPost2010Prop51ColorRGB
 90
-16777216
102
RTVSPost2010PropOp51
 70
     0
102
RTVSPost2010Prop52
140
1.0
102
RTVSPost2010PropOp52
 70
     0
102
RTVSPost2010Prop53
 90
        2
102
RTVSPost2010PropOp53
 70
     1
102
RTVSPost2010Prop54
  1
strokes_ogs.tif
102
RTVSPost2010PropOp54
 70
     1
102
RTVSPost2010Prop55
280
     0
102
RTVSPost2010PropOp55
 70
     1
102
RTVSPost2010Prop56
140
1.0
102
RTVSPost2010PropOp56
 70
     1
102
RTVSPost2010Prop57
140
1.0
102
RTVSPost2010PropOp57
 70
     1
102
RTVSPropertyOp0
 70
     1
102
RTVSPropertyOp1
 70
     1
102
RTVSPropertyOp2
 70
     1
102
RTVSPropertyOp3
 70
     1
102
RTVSPropertyOp4
 70
     1
102
RTVSPropertyOp5
 70
     1
102
RTVSPropertyOp6
 70
     1
102
RTVSPropertyOp7
 70
     1
102
RTVSPropertyOp8
 70
     1
102
RTVSPropertyOp9
 70
     1
102
RTVSPropertyOp10
 70
     1
102
RTVSPropertyOp11
 70
     1
102
RTVSPropertyOp12
 70
     1
102
RTVSPropertyOp13
 70
     1
102
RTVSPropertyOp14
 70
     1
102
RTVSPropertyOp15
 70
     1
102
RTVSPropertyOp16
 70
     1
102
RTVSPropertyOp17
 70
     1
102
RTVSPropertyOp18
 70
     1
102
RTVSPropertyOp19
 70
     1
102
RTVSPropertyOp20
 70
     1
102
RTVSPropertyOp21
 70
     1
102
RTVSPropertyOp22
 70
     1
102
RTVSPropertyOp23
 70
     1
102
RTVSPropertyOp24
 70
     1
102
RTVSPropertyOp25
 70
     1
102
RTVSPropertyOp26
 70
     1
102
RTVSPropertyOp27
 70
     1
102
RTVSPropertyOp28
 70
     1
102
RTVSPropertyOp29
 70
     1
102
RTVSPropertyOp30
 70
     1
102
RTVSPropertyOp31
 70
     1
102
RTVSPropertyOp32
 70
     1
102
RTVSPropertyOp33
 70
     1
102
RTVSPropertyOp34
 70
     1
102
RTVSPropertyOp35
 70
     1
102
RTVSPropertyOp36
 70
     1
102
RTVSPropertyOp37
 70
     1
102
RTVSPropertyOp38
 70
     1
102
RTVSPropertyOp39
 70
     1
102
RTVSPropertyOp40
 70
     1
102
RTVSPropertyOp41
 70
     1
102
RTVSPropertyOp42
 70
     1
102
RTVSPropertyOp43
 70
     1
102
RTVSPropertyOp44
 70
     1
102
RTVSPropertyOp45
 70
     1
102
RTVSPropertyOp46
 70
     1
102
RTVSPropertyOp47
 70
     1
102
RTVSPropertyOp48
 70
     1
102
RTVSPropertyOp49
 70
     1
102
RTVSPropertyOp50
 70
     1
102
RTVSPropertyOp51
 70
     0
102
RTVSPropertyOp52
 70
     0
102
RTVSPropertyOp53
 70
     1
102
RTVSPropertyOp54
 70
     1
102
RTVSPropertyOp55
 70
     1
102
RTVSPropertyOp56
 70
     1
102
RTVSPropertyOp57
 70
     1
102
RTVSPropertyOp58
 70
     1
102
RTVSPropertyOp59
 70
     1
102
RTVSPropertyOp60
 70
     1
102
RTVSPropertyOp61
 70
     1
102
RTVSPropertyOp62
 70
     1
  0
XRECORD
  5
BE
102
{ACAD_REACTORS
330
BD
102
}
330
BD
100
AcDbXrecord
280
     1
102
RTVSPost2010Prop28
280
     0
102
RTVSPost2010PropOp28
 70
     1
102
RTVSPost2010Prop29
280
     1
102
RTVSPost2010PropOp29
 70
     1
102
RTVSPost2010Prop30
280
     1
102
RTVSPost2010PropOp30
 70
     1
102
RTVSPost2010Prop31
280
     0
102
RTVSPost2010PropOp31
 70
     1
102
RTVSPost2010Prop32
280
     0
102
RTVSPost2010PropOp32
 70
     1
102
RTVSPost2010Prop33
280
     0
102
RTVSPost2010PropOp33
 70
     1
102
RTVSPost2010Prop34
280
     0
102
RTVSPost2010PropOp34
 70
     1
102
RTVSPost2010Prop35
280
     0
102
RTVSPost2010PropOp35
 70
     1
102
RTVSPost2010Prop36
280
     0
102
RTVSPost2010PropOp36
 70
     1
102
RTVSPost2010Prop37
 90
       50
102
RTVSPost2010PropOp37
 70
     1
102
RTVSPost2010Prop38
140
0.0
102
RTVSPost2010PropOp38
 70
     1
102
RTVSPost2010Prop39
140
1.0
102
RTVSPost2010PropOp39
 70
     1
102
RTVSPost2010Prop40
 90
        0
102
RTVSPost2010PropOp40
 70
     1
102
RTVSPost2010Prop41ColorIndex
 90
       18
102
RTVSPost2010Prop41ColorRGB
 90
        0
102
RTVSPost2010PropOp41
 70
     1
102
RTVSPost2010Prop42
 90
       50
102
RTVSPost2010PropOp42
 70
     1
102
RTVSPost2010Prop43
 90
        3
102
RTVSPost2010PropOp43
 70
     1
102
RTVSPost2010Prop44ColorIndex
 90
        5
102
RTVSPost2010Prop44ColorRGB
 90
      255
102
RTVSPost2010PropOp44
 70
     1
102
RTVSPost2010Prop45
280
     0
102
RTVSPost2010PropOp45
 70
     1
102
RTVSPost2010Prop46
 90
       50
102
RTVSPost2010PropOp46
 70
     1
102
RTVSPost2010Prop47
 90
       50
102
RTVSPost2010PropOp47
 70
     1
102
RTVSPost2010Prop48
 90
       50
102
RTVSPost2010PropOp48
 70
     1
102
RTVSPost2010Prop49
280
     0
102
RTVSPost2010PropOp49
 70
     1
102
RTVSPost2010Prop50
 90
       50
102
RTVSPost2010PropOp50
 70
     1
102
RTVSPost2010Prop51ColorIndex
 90
      256
102
RTVSPost2010Prop51ColorRGB
 90
-16777216
102
RTVSPost2010PropOp51
 70
     0
102
RTVSPost2010Prop52
140
1.0
102
RTVSPost2010PropOp52
 70
     0
102
RTVSPost2010Prop53
 90
        2
102
RTVSPost2010PropOp53
 70
     1
102
RTVSPost2010Prop54
  1
strokes_ogs.tif
102
RTVSPost2010PropOp54
 70
     1
102
RTVSPost2010Prop55
280
     0
102
RTVSPost2010PropOp55
 70
     1
102
RTVSPost2010Prop56
140
1.0
102
RTVSPost2010PropOp56
 70
     1
102
RTVSPost2010Prop57
140
1.0
102
RTVSPost2010PropOp57
 70
     1
102
RTVSPropertyOp0
 70
     1
102
RTVSPropertyOp1
 70
     1
102
RTVSPropertyOp2
 70
     1
102
RTVSPropertyOp3
 70
     1
102
RTVSPropertyOp4
 70
     1
102
RTVSPropertyOp5
 70
     1
102
RTVSPropertyOp6
 70
     1
102
RTVSPropertyOp7
 70
     1
102
RTVSPropertyOp8
 70
     1
102
RTVSPropertyOp9
 70
     1
102
RTVSPropertyOp10
 70
     1
102
RTVSPropertyOp11
 70
     1
102
RTVSPropertyOp12
 70
     1
102
RTVSPropertyOp13
 70
     1
102
RTVSPropertyOp14
 70
     1
102
RTVSPropertyOp15
 70
     1
102
RTVSPropertyOp16
 70
     1
102
RTVSPropertyOp17
 70
     1
102
RTVSPropertyOp18
 70
     1
102
RTVSPropertyOp19
 70
     1
102
RTVSPropertyOp20
 70
     1
102
RTVSPropertyOp21
 70
     1
102
RTVSPropertyOp22
 70
     1
102
RTVSPropertyOp23
 70
     1
102
RTVSPropertyOp24
 70
     1
102
RTVSPropertyOp25
 70
     1
102
RTVSPropertyOp26
 70
     1
102
RTVSPropertyOp27
 70
     1
102
RTVSPropertyOp28
 70
     1
102
RTVSPropertyOp29
 70
     1
102
RTVSPropertyOp30
 70
     1
102
RTVSPropertyOp31
 70
     1
102
RTVSPropertyOp32
 70
     1
102
RTVSPropertyOp33
 70
     1
102
RTVSPropertyOp34
 70
     1
102
RTVSPropertyOp35
 70
     1
102
RTVSPropertyOp36
 70
     1
102
RTVSPropertyOp37
 70
     1
102
RTVSPropertyOp38
 70
     1
102
RTVSPropertyOp39
 70
     1
102
RTVSPropertyOp40
 70
     1
102
RTVSPropertyOp41
 70
     1
102
RTVSPropertyOp42
 70
     1
102
RTVSPropertyOp43
 70
     1
102
RTVSPropertyOp44
 70
     1
102
RTVSPropertyOp45
 70
     1
102
RTVSPropertyOp46
 70
     1
102
RTVSPropertyOp47
 70
     1
102
RTVSPropertyOp48
 70
     1
102
RTVSPropertyOp49
 70
     1
102
RTVSPropertyOp50
 70
     1
102
RTVSPropertyOp51
 70
     0
102
RTVSPropertyOp52
 70
     0
102
RTVSPropertyOp53
 70
     1
102
RTVSPropertyOp54
 70
     1
102
RTVSPropertyOp55
 70
     1
102
RTVSPropertyOp56
 70
     1
102
RTVSPropertyOp57
 70
     1
102
RTVSPropertyOp58
 70
     1
102
RTVSPropertyOp59
 70
     1
102
RTVSPropertyOp60
 70
     1
102
RTVSPropertyOp61
 70
     1
102
RTVSPropertyOp62
 70
     1
  0
XRECORD
  5
C2
102
{ACAD_REACTORS
330
C1
102
}
330
C1
100
AcDbXrecord
280
     1
102
RTVSPost2010Prop28
280
     0
102
RTVSPost2010PropOp28
 70
     1
102
RTVSPost2010Prop29
280
     1
102
RTVSPost2010PropOp29
 70
     1
102
RTVSPost2010Prop30
280
     1
102
RTVSPost2010PropOp30
 70
     1
102
RTVSPost2010Prop31
280
     0
102
RTVSPost2010PropOp31
 70
     1
102
RTVSPost2010Prop32
280
     0
102
RTVSPost2010PropOp32
 70
     1
102
RTVSPost2010Prop33
280
     0
102
RTVSPost2010PropOp33
 70
     1
102
RTVSPost2010Prop34
280
     0
102
RTVSPost2010PropOp34
 70
     1
102
RTVSPost2010Prop35
280
     0
102
RTVSPost2010PropOp35
 70
     1
102
RTVSPost2010Prop36
280
     0
102
RTVSPost2010PropOp36
 70
     1
102
RTVSPost2010Prop37
 90
       50
102
RTVSPost2010PropOp37
 70
     1
102
RTVSPost2010Prop38
140
0.0
102
RTVSPost2010PropOp38
 70
     1
102
RTVSPost2010Prop39
140
1.0
102
RTVSPost2010PropOp39
 70
     1
102
RTVSPost2010Prop40
 90
        0
102
RTVSPost2010PropOp40
 70
     1
102
RTVSPost2010Prop41ColorIndex
 90
       18
102
RTVSPost2010Prop41ColorRGB
 90
        0
102
RTVSPost2010PropOp41
 70
     1
102
RTVSPost2010Prop42
 90
       50
102
RTVSPost2010PropOp42
 70
     1
102
RTVSPost2010Prop43
 90
        3
102
RTVSPost2010PropOp43
 70
     1
102
RTVSPost2010Prop44ColorIndex
 90
        5
102
RTVSPost2010Prop44ColorRGB
 90
      255
102
RTVSPost2010PropOp44
 70
     1
102
RTVSPost2010Prop45
280
     0
102
RTVSPost2010PropOp45
 70
     1
102
RTVSPost2010Prop46
 90
       50
102
RTVSPost2010PropOp46
 70
     1
102
RTVSPost2010Prop47
 90
       50
102
RTVSPost2010PropOp47
 70
     1
102
RTVSPost2010Prop48
 90
       50
102
RTVSPost2010PropOp48
 70
     1
102
RTVSPost2010Prop49
280
     0
102
RTVSPost2010PropOp49
 70
     1
102
RTVSPost2010Prop50
 90
       50
102
RTVSPost2010PropOp50
 70
     1
102
RTVSPost2010Prop51ColorIndex
 90
      256
102
RTVSPost2010Prop51ColorRGB
 90
-16777216
102
RTVSPost2010PropOp51
 70
     0
102
RTVSPost2010Prop52
140
1.0
102
RTVSPost2010PropOp52
 70
     0
102
RTVSPost2010Prop53
 90
        2
102
RTVSPost2010PropOp53
 70
     1
102
RTVSPost2010Prop54
  1
strokes_ogs.tif
102
RTVSPost2010PropOp54
 70
     1
102
RTVSPost2010Prop55
280
     0
102
RTVSPost2010PropOp55
 70
     1
102
RTVSPost2010Prop56
140
1.0
102
RTVSPost2010PropOp56
 70
     1
102
RTVSPost2010Prop57
140
1.0
102
RTVSPost2010PropOp57
 70
     1
102
RTVSPropertyOp0
 70
     1
102
RTVSPropertyOp1
 70
     1
102
RTVSPropertyOp2
 70
     1
102
RTVSPropertyOp3
 70
     1
102
RTVSPropertyOp4
 70
     1
102
RTVSPropertyOp5
 70
     1
102
RTVSPropertyOp6
 70
     1
102
RTVSPropertyOp7
 70
     1
102
RTVSPropertyOp8
 70
     1
102
RTVSPropertyOp9
 70
     1
102
RTVSPropertyOp10
 70
     1
102
RTVSPropertyOp11
 70
     1
102
RTVSPropertyOp12
 70
     1
102
RTVSPropertyOp13
 70
     1
102
RTVSPropertyOp14
 70
     1
102
RTVSPropertyOp15
 70
     1
102
RTVSPropertyOp16
 70
     1
102
RTVSPropertyOp17
 70
     1
102
RTVSPropertyOp18
 70
     1
102
RTVSPropertyOp19
 70
     1
102
RTVSPropertyOp20
 70
     1
102
RTVSPropertyOp21
 70
     1
102
RTVSPropertyOp22
 70
     1
102
RTVSPropertyOp23
 70
     1
102
RTVSPropertyOp24
 70
     1
102
RTVSPropertyOp25
 70
     1
102
RTVSPropertyOp26
 70
     1
102
RTVSPropertyOp27
 70
     1
102
RTVSPropertyOp28
 70
     1
102
RTVSPropertyOp29
 70
     1
102
RTVSPropertyOp30
 70
     1
102
RTVSPropertyOp31
 70
     1
102
RTVSPropertyOp32
 70
     1
102
RTVSPropertyOp33
 70
     1
102
RTVSPropertyOp34
 70
     1
102
RTVSPropertyOp35
 70
     1
102
RTVSPropertyOp36
 70
     1
102
RTVSPropertyOp37
 70
     1
102
RTVSPropertyOp38
 70
     1
102
RTVSPropertyOp39
 70
     1
102
RTVSPropertyOp40
 70
     1
102
RTVSPropertyOp41
 70
     1
102
RTVSPropertyOp42
 70
     1
102
RTVSPropertyOp43
 70
     1
102
RTVSPropertyOp44
 70
     1
102
RTVSPropertyOp45
 70
     1
102
RTVSPropertyOp46
 70
     1
102
RTVSPropertyOp47
 70
     1
102
RTVSPropertyOp48
 70
     1
102
RTVSPropertyOp49
 70
     1
102
RTVSPropertyOp50
 70
     1
102
RTVSPropertyOp51
 70
     0
102
RTVSPropertyOp52
 70
     0
102
RTVSPropertyOp53
 70
     1
102
RTVSPropertyOp54
 70
     1
102
RTVSPropertyOp55
 70
     1
102
RTVSPropertyOp56
 70
     1
102
RTVSPropertyOp57
 70
     1
102
RTVSPropertyOp58
 70
     1
102
RTVSPropertyOp59
 70
     1
102
RTVSPropertyOp60
 70
     1
102
RTVSPropertyOp61
 70
     1
102
RTVSPropertyOp62
 70
     1
  0
XRECORD
  5
DC
102
{ACAD_REACTORS
330
DB
102
}
330
DB
100
AcDbXrecord
280
     1
102
RTVSPost2010Prop28
280
     0
102
RTVSPost2010PropOp28
 70
     0
102
RTVSPost2010Prop29
280
     1
102
RTVSPost2010PropOp29
 70
     0
102
RTVSPost2010Prop30
280
     1
102
RTVSPost2010PropOp30
 70
     0
102
RTVSPost2010Prop31
280
     0
102
RTVSPost2010PropOp31
 70
     0
102
RTVSPost2010Prop32
280
     0
102
RTVSPost2010PropOp32
 70
     0
102
RTVSPost2010Prop33
280
     0
102
RTVSPost2010PropOp33
 70
     0
102
RTVSPost2010Prop34
280
     0
102
RTVSPost2010PropOp34
 70
     0
102
RTVSPost2010Prop35
280
     0
102
RTVSPost2010PropOp35
 70
     0
102
RTVSPost2010Prop36
280
     0
102
RTVSPost2010PropOp36
 70
     0
102
RTVSPost2010Prop37
 90
       50
102
RTVSPost2010PropOp37
 70
     0
102
RTVSPost2010Prop38
140
0.0
102
RTVSPost2010PropOp38
 70
     0
102
RTVSPost2010Prop39
140
1.0
102
RTVSPost2010PropOp39
 70
     0
102
RTVSPost2010Prop40
 90
        0
102
RTVSPost2010PropOp40
 70
     0
102
RTVSPost2010Prop41ColorIndex
 90
       18
102
RTVSPost2010Prop41ColorRGB
 90
        0
102
RTVSPost2010PropOp41
 70
     0
102
RTVSPost2010Prop42
 90
       50
102
RTVSPost2010PropOp42
 70
     0
102
RTVSPost2010Prop43
 90
        3
102
RTVSPost2010PropOp43
 70
     0
102
RTVSPost2010Prop44ColorIndex
 90
        5
102
RTVSPost2010Prop44ColorRGB
 90
      255
102
RTVSPost2010PropOp44
 70
     0
102
RTVSPost2010Prop45
280
     0
102
RTVSPost2010PropOp45
 70
     0
102
RTVSPost2010Prop46
 90
       50
102
RTVSPost2010PropOp46
 70
     0
102
RTVSPost2010Prop47
 90
       50
102
RTVSPost2010PropOp47
 70
     0
102
RTVSPost2010Prop48
 90
       50
102
RTVSPost2010PropOp48
 70
     0
102
RTVSPost2010Prop49
280
     0
102
RTVSPost2010PropOp49
 70
     0
102
RTVSPost2010Prop50
 90
       50
102
RTVSPost2010PropOp50
 70
     0
102
RTVSPost2010Prop51ColorIndex
 90
      256
102
RTVSPost2010Prop51ColorRGB
 90
-16777216
102
RTVSPost2010PropOp51
 70
     0
102
RTVSPost2010Prop52
140
1.0
102
RTVSPost2010PropOp52
 70
     0
102
RTVSPost2010Prop53
 90
        2
102
RTVSPost2010PropOp53
 70
     0
102
RTVSPost2010Prop54
  1
strokes_ogs.tif
102
RTVSPost2010PropOp54
 70
     0
102
RTVSPost2010Prop55
280
     0
102
RTVSPost2010PropOp55
 70
     0
102
RTVSPost2010Prop56
140
1.0
102
RTVSPost2010PropOp56
 70
     0
102
RTVSPost2010Prop57
140
1.0
102
RTVSPost2010PropOp57
 70
     0
102
RTVSPropertyOp0
 70
     0
102
RTVSPropertyOp1
 70
     0
102
RTVSPropertyOp2
 70
     0
102
RTVSPropertyOp3
 70
     0
102
RTVSPropertyOp4
 70
     0
102
RTVSPropertyOp5
 70
     0
102
RTVSPropertyOp6
 70
     0
102
RTVSPropertyOp7
 70
     0
102
RTVSPropertyOp8
 70
     0
102
RTVSPropertyOp9
 70
     0
102
RTVSPropertyOp10
 70
     0
102
RTVSPropertyOp11
 70
     0
102
RTVSPropertyOp12
 70
     0
102
RTVSPropertyOp13
 70
     0
102
RTVSPropertyOp14
 70
     2
102
RTVSPropertyOp15
 70
     0
102
RTVSPropertyOp16
 70
     0
102
RTVSPropertyOp17
 70
     0
102
RTVSPropertyOp18
 70
     0
102
RTVSPropertyOp19
 70
     0
102
RTVSPropertyOp20
 70
     0
102
RTVSPropertyOp21
 70
     0
102
RTVSPropertyOp22
 70
     0
102
RTVSPropertyOp23
 70
     0
102
RTVSPropertyOp24
 70
     0
102
RTVSPropertyOp25
 70
     0
102
RTVSPropertyOp26
 70
     0
102
RTVSPropertyOp27
 70
     0
102
RTVSPropertyOp28
 70
     0
102
RTVSPropertyOp29
 70
     0
102
RTVSPropertyOp30
 70
     0
102
RTVSPropertyOp31
 70
     0
102
RTVSPropertyOp32
 70
     0
102
RTVSPropertyOp33
 70
     0
102
RTVSPropertyOp34
 70
     0
102
RTVSPropertyOp35
 70
     0
102
RTVSPropertyOp36
 70
     0
102
RTVSPropertyOp37
 70
     0
102
RTVSPropertyOp38
 70
     0
102
RTVSPropertyOp39
 70
     0
102
RTVSPropertyOp40
 70
     0
102
RTVSPropertyOp41
 70
     0
102
RTVSPropertyOp42
 70
     0
102
RTVSPropertyOp43
 70
     0
102
RTVSPropertyOp44
 70
     0
102
RTVSPropertyOp45
 70
     0
102
RTVSPropertyOp46
 70
     0
102
RTVSPropertyOp47
 70
     0
102
RTVSPropertyOp48
 70
     0
102
RTVSPropertyOp49
 70
     0
102
RTVSPropertyOp50
 70
     0
102
RTVSPropertyOp51
 70
     0
102
RTVSPropertyOp52
 70
     0
102
RTVSPropertyOp53
 70
     0
102
RTVSPropertyOp54
 70
     0
102
RTVSPropertyOp55
 70
     0
102
RTVSPropertyOp56
 70
     0
102
RTVSPropertyOp57
 70
     0
102
RTVSPropertyOp58
 70
     0
102
RTVSPropertyOp59
 70
     0
102
RTVSPropertyOp60
 70
     0
102
RTVSPropertyOp61
 70
     0
102
RTVSPropertyOp62
 70
     0
  0
XRECORD
  5
CA
102
{ACAD_REACTORS
330
C9
102
}
330
C9
100
AcDbXrecord
280
     1
102
RTVSPost2010Prop28
280
     0
102
RTVSPost2010PropOp28
 70
     1
102
RTVSPost2010Prop29
280
     1
102
RTVSPost2010PropOp29
 70
     1
102
RTVSPost2010Prop30
280
     1
102
RTVSPost2010PropOp30
 70
     1
102
RTVSPost2010Prop31
280
     0
102
RTVSPost2010PropOp31
 70
     1
102
RTVSPost2010Prop32
280
     0
102
RTVSPost2010PropOp32
 70
     1
102
RTVSPost2010Prop33
280
     0
102
RTVSPost2010PropOp33
 70
     1
102
RTVSPost2010Prop34
280
     0
102
RTVSPost2010PropOp34
 70
     1
102
RTVSPost2010Prop35
280
     0
102
RTVSPost2010PropOp35
 70
     1
102
RTVSPost2010Prop36
280
     0
102
RTVSPost2010PropOp36
 70
     1
102
RTVSPost2010Prop37
 90
       50
102
RTVSPost2010PropOp37
 70
     1
102
RTVSPost2010Prop38
140
0.0
102
RTVSPost2010PropOp38
 70
     1
102
RTVSPost2010Prop39
140
1.0
102
RTVSPost2010PropOp39
 70
     1
102
RTVSPost2010Prop40
 90
        0
102
RTVSPost2010PropOp40
 70
     1
102
RTVSPost2010Prop41ColorIndex
 90
       18
102
RTVSPost2010Prop41ColorRGB
 90
        0
102
RTVSPost2010PropOp41
 70
     1
102
RTVSPost2010Prop42
 90
       50
102
RTVSPost2010PropOp42
 70
     1
102
RTVSPost2010Prop43
 90
        3
102
RTVSPost2010PropOp43
 70
     1
102
RTVSPost2010Prop44ColorIndex
 90
        5
102
RTVSPost2010Prop44ColorRGB
 90
      255
102
RTVSPost2010PropOp44
 70
     1
102
RTVSPost2010Prop45
280
     0
102
RTVSPost2010PropOp45
 70
     1
102
RTVSPost2010Prop46
 90
       50
102
RTVSPost2010PropOp46
 70
     1
102
RTVSPost2010Prop47
 90
       50
102
RTVSPost2010PropOp47
 70
     1
102
RTVSPost2010Prop48
 90
       50
102
RTVSPost2010PropOp48
 70
     1
102
RTVSPost2010Prop49
280
     0
102
RTVSPost2010PropOp49
 70
     1
102
RTVSPost2010Prop50
 90
       50
102
RTVSPost2010PropOp50
 70
     1
102
RTVSPost2010Prop51ColorIndex
 90
      256
102
RTVSPost2010Prop51ColorRGB
 90
-16777216
102
RTVSPost2010PropOp51
 70
     0
102
RTVSPost2010Prop52
140
1.0
102
RTVSPost2010PropOp52
 70
     0
102
RTVSPost2010Prop53
 90
        2
102
RTVSPost2010PropOp53
 70
     1
102
RTVSPost2010Prop54
  1
strokes_ogs.tif
102
RTVSPost2010PropOp54
 70
     1
102
RTVSPost2010Prop55
280
     0
102
RTVSPost2010PropOp55
 70
     1
102
RTVSPost2010Prop56
140
1.0
102
RTVSPost2010PropOp56
 70
     1
102
RTVSPost2010Prop57
140
1.0
102
RTVSPost2010PropOp57
 70
     1
102
RTVSPropertyOp0
 70
     1
102
RTVSPropertyOp1
 70
     1
102
RTVSPropertyOp2
 70
     1
102
RTVSPropertyOp3
 70
     1
102
RTVSPropertyOp4
 70
     1
102
RTVSPropertyOp5
 70
     1
102
RTVSPropertyOp6
 70
     1
102
RTVSPropertyOp7
 70
     1
102
RTVSPropertyOp8
 70
     1
102
RTVSPropertyOp9
 70
     1
102
RTVSPropertyOp10
 70
     1
102
RTVSPropertyOp11
 70
     1
102
RTVSPropertyOp12
 70
     1
102
RTVSPropertyOp13
 70
     1
102
RTVSPropertyOp14
 70
     1
102
RTVSPropertyOp15
 70
     1
102
RTVSPropertyOp16
 70
     1
102
RTVSPropertyOp17
 70
     1
102
RTVSPropertyOp18
 70
     1
102
RTVSPropertyOp19
 70
     1
102
RTVSPropertyOp20
 70
     1
102
RTVSPropertyOp21
 70
     1
102
RTVSPropertyOp22
 70
     1
102
RTVSPropertyOp23
 70
     1
102
RTVSPropertyOp24
 70
     1
102
RTVSPropertyOp25
 70
     1
102
RTVSPropertyOp26
 70
     1
102
RTVSPropertyOp27
 70
     1
102
RTVSPropertyOp28
 70
     1
102
RTVSPropertyOp29
 70
     1
102
RTVSPropertyOp30
 70
     1
102
RTVSPropertyOp31
 70
     1
102
RTVSPropertyOp32
 70
     1
102
RTVSPropertyOp33
 70
     1
102
RTVSPropertyOp34
 70
     1
102
RTVSPropertyOp35
 70
     1
102
RTVSPropertyOp36
 70
     1
102
RTVSPropertyOp37
 70
     1
102
RTVSPropertyOp38
 70
     1
102
RTVSPropertyOp39
 70
     1
102
RTVSPropertyOp40
 70
     1
102
RTVSPropertyOp41
 70
     1
102
RTVSPropertyOp42
 70
     1
102
RTVSPropertyOp43
 70
     1
102
RTVSPropertyOp44
 70
     1
102
RTVSPropertyOp45
 70
     1
102
RTVSPropertyOp46
 70
     1
102
RTVSPropertyOp47
 70
     1
102
RTVSPropertyOp48
 70
     1
102
RTVSPropertyOp49
 70
     1
102
RTVSPropertyOp50
 70
     1
102
RTVSPropertyOp51
 70
     0
102
RTVSPropertyOp52
 70
     0
102
RTVSPropertyOp53
 70
     1
102
RTVSPropertyOp54
 70
     1
102
RTVSPropertyOp55
 70
     1
102
RTVSPropertyOp56
 70
     1
102
RTVSPropertyOp57
 70
     1
102
RTVSPropertyOp58
 70
     1
102
RTVSPropertyOp59
 70
     1
102
RTVSPropertyOp60
 70
     1
102
RTVSPropertyOp61
 70
     1
102
RTVSPropertyOp62
 70
     1
  0
XRECORD
  5
AE
102
{ACAD_REACTORS
330
AD
102
}
330
AD
100
AcDbXrecord
280
     1
102
RTVSPost2010Prop28
280
     0
102
RTVSPost2010PropOp28
 70
     1
102
RTVSPost2010Prop29
280
     1
102
RTVSPost2010PropOp29
 70
     1
102
RTVSPost2010Prop30
280
     1
102
RTVSPost2010PropOp30
 70
     1
102
RTVSPost2010Prop31
280
     0
102
RTVSPost2010PropOp31
 70
     1
102
RTVSPost2010Prop32
280
     0
102
RTVSPost2010PropOp32
 70
     1
102
RTVSPost2010Prop33
280
     0
102
RTVSPost2010PropOp33
 70
     1
102
RTVSPost2010Prop34
280
     0
102
RTVSPost2010PropOp34
 70
     1
102
RTVSPost2010Prop35
280
     0
102
RTVSPost2010PropOp35
 70
     1
102
RTVSPost2010Prop36
280
     0
102
RTVSPost2010PropOp36
 70
     1
102
RTVSPost2010Prop37
 90
       50
102
RTVSPost2010PropOp37
 70
     1
102
RTVSPost2010Prop38
140
0.0
102
RTVSPost2010PropOp38
 70
     1
102
RTVSPost2010Prop39
140
1.0
102
RTVSPost2010PropOp39
 70
     1
102
RTVSPost2010Prop40
 90
        0
102
RTVSPost2010PropOp40
 70
     1
102
RTVSPost2010Prop41ColorIndex
 90
       18
102
RTVSPost2010Prop41ColorRGB
 90
        0
102
RTVSPost2010PropOp41
 70
     1
102
RTVSPost2010Prop42
 90
       50
102
RTVSPost2010PropOp42
 70
     1
102
RTVSPost2010Prop43
 90
        3
102
RTVSPost2010PropOp43
 70
     1
102
RTVSPost2010Prop44ColorIndex
 90
        5
102
RTVSPost2010Prop44ColorRGB
 90
      255
102
RTVSPost2010PropOp44
 70
     1
102
RTVSPost2010Prop45
280
     0
102
RTVSPost2010PropOp45
 70
     1
102
RTVSPost2010Prop46
 90
       50
102
RTVSPost2010PropOp46
 70
     1
102
RTVSPost2010Prop47
 90
       50
102
RTVSPost2010PropOp47
 70
     1
102
RTVSPost2010Prop48
 90
       50
102
RTVSPost2010PropOp48
 70
     1
102
RTVSPost2010Prop49
280
     0
102
RTVSPost2010PropOp49
 70
     1
102
RTVSPost2010Prop50
 90
       50
102
RTVSPost2010PropOp50
 70
     1
102
RTVSPost2010Prop51ColorIndex
 90
      256
102
RTVSPost2010Prop51ColorRGB
 90
-16777216
102
RTVSPost2010PropOp51
 70
     0
102
RTVSPost2010Prop52
140
1.0
102
RTVSPost2010PropOp52
 70
     0
102
RTVSPost2010Prop53
 90
        2
102
RTVSPost2010PropOp53
 70
     1
102
RTVSPost2010Prop54
  1
strokes_ogs.tif
102
RTVSPost2010PropOp54
 70
     1
102
RTVSPost2010Prop55
280
     0
102
RTVSPost2010PropOp55
 70
     1
102
RTVSPost2010Prop56
140
1.0
102
RTVSPost2010PropOp56
 70
     1
102
RTVSPost2010Prop57
140
1.0
102
RTVSPost2010PropOp57
 70
     1
102
RTVSPropertyOp0
 70
     1
102
RTVSPropertyOp1
 70
     1
102
RTVSPropertyOp2
 70
     1
102
RTVSPropertyOp3
 70
     1
102
RTVSPropertyOp4
 70
     1
102
RTVSPropertyOp5
 70
     1
102
RTVSPropertyOp6
 70
     1
102
RTVSPropertyOp7
 70
     1
102
RTVSPropertyOp8
 70
     1
102
RTVSPropertyOp9
 70
     1
102
RTVSPropertyOp10
 70
     1
102
RTVSPropertyOp11
 70
     1
102
RTVSPropertyOp12
 70
     1
102
RTVSPropertyOp13
 70
     1
102
RTVSPropertyOp14
 70
     1
102
RTVSPropertyOp15
 70
     1
102
RTVSPropertyOp16
 70
     1
102
RTVSPropertyOp17
 70
     1
102
RTVSPropertyOp18
 70
     1
102
RTVSPropertyOp19
 70
     1
102
RTVSPropertyOp20
 70
     1
102
RTVSPropertyOp21
 70
     1
102
RTVSPropertyOp22
 70
     1
102
RTVSPropertyOp23
 70
     1
102
RTVSPropertyOp24
 70
     1
102
RTVSPropertyOp25
 70
     1
102
RTVSPropertyOp26
 70
     1
102
RTVSPropertyOp27
 70
     1
102
RTVSPropertyOp28
 70
     1
102
RTVSPropertyOp29
 70
     1
102
RTVSPropertyOp30
 70
     1
102
RTVSPropertyOp31
 70
     1
102
RTVSPropertyOp32
 70
     1
102
RTVSPropertyOp33
 70
     1
102
RTVSPropertyOp34
 70
     1
102
RTVSPropertyOp35
 70
     1
102
RTVSPropertyOp36
 70
     1
102
RTVSPropertyOp37
 70
     1
102
RTVSPropertyOp38
 70
     1
102
RTVSPropertyOp39
 70
     1
102
RTVSPropertyOp40
 70
     1
102
RTVSPropertyOp41
 70
     1
102
RTVSPropertyOp42
 70
     1
102
RTVSPropertyOp43
 70
     1
102
RTVSPropertyOp44
 70
     1
102
RTVSPropertyOp45
 70
     1
102
RTVSPropertyOp46
 70
     1
102
RTVSPropertyOp47
 70
     1
102
RTVSPropertyOp48
 70
     1
102
RTVSPropertyOp49
 70
     1
102
RTVSPropertyOp50
 70
     1
102
RTVSPropertyOp51
 70
     0
102
RTVSPropertyOp52
 70
     0
102
RTVSPropertyOp53
 70
     1
102
RTVSPropertyOp54
 70
     1
102
RTVSPropertyOp55
 70
     1
102
RTVSPropertyOp56
 70
     1
102
RTVSPropertyOp57
 70
     1
102
RTVSPropertyOp58
 70
     1
102
RTVSPropertyOp59
 70
     1
102
RTVSPropertyOp60
 70
     1
102
RTVSPropertyOp61
 70
     1
102
RTVSPropertyOp62
 70
     1
  0
XRECORD
  5
B0
102
{ACAD_REACTORS
330
AF
102
}
330
AF
100
AcDbXrecord
280
     1
102
RTVSPost2010Prop28
280
     0
102
RTVSPost2010PropOp28
 70
     1
102
RTVSPost2010Prop29
280
     1
102
RTVSPost2010PropOp29
 70
     1
102
RTVSPost2010Prop30
280
     1
102
RTVSPost2010PropOp30
 70
     1
102
RTVSPost2010Prop31
280
     0
102
RTVSPost2010PropOp31
 70
     1
102
RTVSPost2010Prop32
280
     0
102
RTVSPost2010PropOp32
 70
     1
102
RTVSPost2010Prop33
280
     0
102
RTVSPost2010PropOp33
 70
     1
102
RTVSPost2010Prop34
280
     0
102
RTVSPost2010PropOp34
 70
     1
102
RTVSPost2010Prop35
280
     0
102
RTVSPost2010PropOp35
 70
     1
102
RTVSPost2010Prop36
280
     0
102
RTVSPost2010PropOp36
 70
     1
102
RTVSPost2010Prop37
 90
       50
102
RTVSPost2010PropOp37
 70
     1
102
RTVSPost2010Prop38
140
0.0
102
RTVSPost2010PropOp38
 70
     1
102
RTVSPost2010Prop39
140
1.0
102
RTVSPost2010PropOp39
 70
     1
102
RTVSPost2010Prop40
 90
        0
102
RTVSPost2010PropOp40
 70
     1
102
RTVSPost2010Prop41ColorIndex
 90
       18
102
RTVSPost2010Prop41ColorRGB
 90
        0
102
RTVSPost2010PropOp41
 70
     1
102
RTVSPost2010Prop42
 90
       50
102
RTVSPost2010PropOp42
 70
     1
102
RTVSPost2010Prop43
 90
        3
102
RTVSPost2010PropOp43
 70
     1
102
RTVSPost2010Prop44ColorIndex
 90
        5
102
RTVSPost2010Prop44ColorRGB
 90
      255
102
RTVSPost2010PropOp44
 70
     1
102
RTVSPost2010Prop45
280
     0
102
RTVSPost2010PropOp45
 70
     1
102
RTVSPost2010Prop46
 90
       50
102
RTVSPost2010PropOp46
 70
     1
102
RTVSPost2010Prop47
 90
       50
102
RTVSPost2010PropOp47
 70
     1
102
RTVSPost2010Prop48
 90
       50
102
RTVSPost2010PropOp48
 70
     1
102
RTVSPost2010Prop49
280
     0
102
RTVSPost2010PropOp49
 70
     1
102
RTVSPost2010Prop50
 90
       50
102
RTVSPost2010PropOp50
 70
     1
102
RTVSPost2010Prop51ColorIndex
 90
      256
102
RTVSPost2010Prop51ColorRGB
 90
-16777216
102
RTVSPost2010PropOp51
 70
     0
102
RTVSPost2010Prop52
140
1.0
102
RTVSPost2010PropOp52
 70
     0
102
RTVSPost2010Prop53
 90
        2
102
RTVSPost2010PropOp53
 70
     1
102
RTVSPost2010Prop54
  1
strokes_ogs.tif
102
RTVSPost2010PropOp54
 70
     1
102
RTVSPost2010Prop55
280
     0
102
RTVSPost2010PropOp55
 70
     1
102
RTVSPost2010Prop56
140
1.0
102
RTVSPost2010PropOp56
 70
     1
102
RTVSPost2010Prop57
140
1.0
102
RTVSPost2010PropOp57
 70
     1
102
RTVSPropertyOp0
 70
     1
102
RTVSPropertyOp1
 70
     1
102
RTVSPropertyOp2
 70
     1
102
RTVSPropertyOp3
 70
     1
102
RTVSPropertyOp4
 70
     1
102
RTVSPropertyOp5
 70
     1
102
RTVSPropertyOp6
 70
     1
102
RTVSPropertyOp7
 70
     1
102
RTVSPropertyOp8
 70
     1
102
RTVSPropertyOp9
 70
     1
102
RTVSPropertyOp10
 70
     1
102
RTVSPropertyOp11
 70
     1
102
RTVSPropertyOp12
 70
     1
102
RTVSPropertyOp13
 70
     1
102
RTVSPropertyOp14
 70
     1
102
RTVSPropertyOp15
 70
     1
102
RTVSPropertyOp16
 70
     1
102
RTVSPropertyOp17
 70
     1
102
RTVSPropertyOp18
 70
     1
102
RTVSPropertyOp19
 70
     1
102
RTVSPropertyOp20
 70
     1
102
RTVSPropertyOp21
 70
     1
102
RTVSPropertyOp22
 70
     1
102
RTVSPropertyOp23
 70
     1
102
RTVSPropertyOp24
 70
     1
102
RTVSPropertyOp25
 70
     1
102
RTVSPropertyOp26
 70
     1
102
RTVSPropertyOp27
 70
     1
102
RTVSPropertyOp28
 70
     1
102
RTVSPropertyOp29
 70
     1
102
RTVSPropertyOp30
 70
     1
102
RTVSPropertyOp31
 70
     1
102
RTVSPropertyOp32
 70
     1
102
RTVSPropertyOp33
 70
     1
102
RTVSPropertyOp34
 70
     1
102
RTVSPropertyOp35
 70
     1
102
RTVSPropertyOp36
 70
     1
102
RTVSPropertyOp37
 70
     1
102
RTVSPropertyOp38
 70
     1
102
RTVSPropertyOp39
 70
     1
102
RTVSPropertyOp40
 70
     1
102
RTVSPropertyOp41
 70
     1
102
RTVSPropertyOp42
 70
     1
102
RTVSPropertyOp43
 70
     1
102
RTVSPropertyOp44
 70
     1
102
RTVSPropertyOp45
 70
     1
102
RTVSPropertyOp46
 70
     1
102
RTVSPropertyOp47
 70
     1
102
RTVSPropertyOp48
 70
     1
102
RTVSPropertyOp49
 70
     1
102
RTVSPropertyOp50
 70
     1
102
RTVSPropertyOp51
 70
     0
102
RTVSPropertyOp52
 70
     0
102
RTVSPropertyOp53
 70
     1
102
RTVSPropertyOp54
 70
     1
102
RTVSPropertyOp55
 70
     1
102
RTVSPropertyOp56
 70
     1
102
RTVSPropertyOp57
 70
     1
102
RTVSPropertyOp58
 70
     1
102
RTVSPropertyOp59
 70
     1
102
RTVSPropertyOp60
 70
     1
102
RTVSPropertyOp61
 70
     1
102
RTVSPropertyOp62
 70
     1
  0
XRECORD
  5
B2
102
{ACAD_REACTORS
330
B1
102
}
330
B1
100
AcDbXrecord
280
     1
102
RTVSPost2010Prop28
280
     0
102
RTVSPost2010PropOp28
 70
     1
102
RTVSPost2010Prop29
280
     1
102
RTVSPost2010PropOp29
 70
     1
102
RTVSPost2010Prop30
280
     1
102
RTVSPost2010PropOp30
 70
     1
102
RTVSPost2010Prop31
280
     0
102
RTVSPost2010PropOp31
 70
     1
102
RTVSPost2010Prop32
280
     0
102
RTVSPost2010PropOp32
 70
     1
102
RTVSPost2010Prop33
280
     0
102
RTVSPost2010PropOp33
 70
     1
102
RTVSPost2010Prop34
280
     0
102
RTVSPost2010PropOp34
 70
     1
102
RTVSPost2010Prop35
280
     0
102
RTVSPost2010PropOp35
 70
     1
102
RTVSPost2010Prop36
280
     0
102
RTVSPost2010PropOp36
 70
     1
102
RTVSPost2010Prop37
 90
       50
102
RTVSPost2010PropOp37
 70
     1
102
RTVSPost2010Prop38
140
0.0
102
RTVSPost2010PropOp38
 70
     1
102
RTVSPost2010Prop39
140
1.0
102
RTVSPost2010PropOp39
 70
     1
102
RTVSPost2010Prop40
 90
        0
102
RTVSPost2010PropOp40
 70
     1
102
RTVSPost2010Prop41ColorIndex
 90
       18
102
RTVSPost2010Prop41ColorRGB
 90
        0
102
RTVSPost2010PropOp41
 70
     1
102
RTVSPost2010Prop42
 90
       50
102
RTVSPost2010PropOp42
 70
     1
102
RTVSPost2010Prop43
 90
        3
102
RTVSPost2010PropOp43
 70
     1
102
RTVSPost2010Prop44ColorIndex
 90
        5
102
RTVSPost2010Prop44ColorRGB
 90
      255
102
RTVSPost2010PropOp44
 70
     1
102
RTVSPost2010Prop45
280
     0
102
RTVSPost2010PropOp45
 70
     1
102
RTVSPost2010Prop46
 90
       50
102
RTVSPost2010PropOp46
 70
     1
102
RTVSPost2010Prop47
 90
       50
102
RTVSPost2010PropOp47
 70
     1
102
RTVSPost2010Prop48
 90
       50
102
RTVSPost2010PropOp48
 70
     1
102
RTVSPost2010Prop49
280
     0
102
RTVSPost2010PropOp49
 70
     1
102
RTVSPost2010Prop50
 90
       50
102
RTVSPost2010PropOp50
 70
     1
102
RTVSPost2010Prop51ColorIndex
 90
      256
102
RTVSPost2010Prop51ColorRGB
 90
-16777216
102
RTVSPost2010PropOp51
 70
     0
102
RTVSPost2010Prop52
140
1.0
102
RTVSPost2010PropOp52
 70
     0
102
RTVSPost2010Prop53
 90
        2
102
RTVSPost2010PropOp53
 70
     1
102
RTVSPost2010Prop54
  1
strokes_ogs.tif
102
RTVSPost2010PropOp54
 70
     1
102
RTVSPost2010Prop55
280
     0
102
RTVSPost2010PropOp55
 70
     1
102
RTVSPost2010Prop56
140
1.0
102
RTVSPost2010PropOp56
 70
     1
102
RTVSPost2010Prop57
140
1.0
102
RTVSPost2010PropOp57
 70
     1
102
RTVSPropertyOp0
 70
     1
102
RTVSPropertyOp1
 70
     1
102
RTVSPropertyOp2
 70
     1
102
RTVSPropertyOp3
 70
     1
102
RTVSPropertyOp4
 70
     1
102
RTVSPropertyOp5
 70
     1
102
RTVSPropertyOp6
 70
     1
102
RTVSPropertyOp7
 70
     1
102
RTVSPropertyOp8
 70
     1
102
RTVSPropertyOp9
 70
     1
102
RTVSPropertyOp10
 70
     1
102
RTVSPropertyOp11
 70
     1
102
RTVSPropertyOp12
 70
     1
102
RTVSPropertyOp13
 70
     1
102
RTVSPropertyOp14
 70
     1
102
RTVSPropertyOp15
 70
     1
102
RTVSPropertyOp16
 70
     1
102
RTVSPropertyOp17
 70
     1
102
RTVSPropertyOp18
 70
     1
102
RTVSPropertyOp19
 70
     1
102
RTVSPropertyOp20
 70
     1
102
RTVSPropertyOp21
 70
     1
102
RTVSPropertyOp22
 70
     1
102
RTVSPropertyOp23
 70
     1
102
RTVSPropertyOp24
 70
     1
102
RTVSPropertyOp25
 70
     1
102
RTVSPropertyOp26
 70
     1
102
RTVSPropertyOp27
 70
     1
102
RTVSPropertyOp28
 70
     1
102
RTVSPropertyOp29
 70
     1
102
RTVSPropertyOp30
 70
     1
102
RTVSPropertyOp31
 70
     1
102
RTVSPropertyOp32
 70
     1
102
RTVSPropertyOp33
 70
     1
102
RTVSPropertyOp34
 70
     1
102
RTVSPropertyOp35
 70
     1
102
RTVSPropertyOp36
 70
     1
102
RTVSPropertyOp37
 70
     1
102
RTVSPropertyOp38
 70
     1
102
RTVSPropertyOp39
 70
     1
102
RTVSPropertyOp40
 70
     1
102
RTVSPropertyOp41
 70
     1
102
RTVSPropertyOp42
 70
     1
102
RTVSPropertyOp43
 70
     1
102
RTVSPropertyOp44
 70
     1
102
RTVSPropertyOp45
 70
     1
102
RTVSPropertyOp46
 70
     1
102
RTVSPropertyOp47
 70
     1
102
RTVSPropertyOp48
 70
     1
102
RTVSPropertyOp49
 70
     1
102
RTVSPropertyOp50
 70
     1
102
RTVSPropertyOp51
 70
     0
102
RTVSPropertyOp52
 70
     0
102
RTVSPropertyOp53
 70
     1
102
RTVSPropertyOp54
 70
     1
102
RTVSPropertyOp55
 70
     1
102
RTVSPropertyOp56
 70
     1
102
RTVSPropertyOp57
 70
     1
102
RTVSPropertyOp58
 70
     1
102
RTVSPropertyOp59
 70
     1
102
RTVSPropertyOp60
 70
     1
102
RTVSPropertyOp61
 70
     1
102
RTVSPropertyOp62
 70
     1
  0
XRECORD
  5
B4
102
{ACAD_REACTORS
330
B3
102
}
330
B3
100
AcDbXrecord
280
     1
102
RTVSPost2010Prop28
280
     0
102
RTVSPost2010PropOp28
 70
     1
102
RTVSPost2010Prop29
280
     1
102
RTVSPost2010PropOp29
 70
     1
102
RTVSPost2010Prop30
280
     1
102
RTVSPost2010PropOp30
 70
     1
102
RTVSPost2010Prop31
280
     0
102
RTVSPost2010PropOp31
 70
     1
102
RTVSPost2010Prop32
280
     0
102
RTVSPost2010PropOp32
 70
     1
102
RTVSPost2010Prop33
280
     0
102
RTVSPost2010PropOp33
 70
     1
102
RTVSPost2010Prop34
280
     0
102
RTVSPost2010PropOp34
 70
     1
102
RTVSPost2010Prop35
280
     0
102
RTVSPost2010PropOp35
 70
     1
102
RTVSPost2010Prop36
280
     0
102
RTVSPost2010PropOp36
 70
     1
102
RTVSPost2010Prop37
 90
       50
102
RTVSPost2010PropOp37
 70
     1
102
RTVSPost2010Prop38
140
0.0
102
RTVSPost2010PropOp38
 70
     1
102
RTVSPost2010Prop39
140
1.0
102
RTVSPost2010PropOp39
 70
     1
102
RTVSPost2010Prop40
 90
        0
102
RTVSPost2010PropOp40
 70
     1
102
RTVSPost2010Prop41ColorIndex
 90
       18
102
RTVSPost2010Prop41ColorRGB
 90
        0
102
RTVSPost2010PropOp41
 70
     1
102
RTVSPost2010Prop42
 90
       50
102
RTVSPost2010PropOp42
 70
     1
102
RTVSPost2010Prop43
 90
        3
102
RTVSPost2010PropOp43
 70
     1
102
RTVSPost2010Prop44ColorIndex
 90
        5
102
RTVSPost2010Prop44ColorRGB
 90
      255
102
RTVSPost2010PropOp44
 70
     1
102
RTVSPost2010Prop45
280
     0
102
RTVSPost2010PropOp45
 70
     1
102
RTVSPost2010Prop46
 90
       50
102
RTVSPost2010PropOp46
 70
     1
102
RTVSPost2010Prop47
 90
       50
102
RTVSPost2010PropOp47
 70
     1
102
RTVSPost2010Prop48
 90
       50
102
RTVSPost2010PropOp48
 70
     1
102
RTVSPost2010Prop49
280
     0
102
RTVSPost2010PropOp49
 70
     1
102
RTVSPost2010Prop50
 90
       50
102
RTVSPost2010PropOp50
 70
     1
102
RTVSPost2010Prop51ColorIndex
 90
      256
102
RTVSPost2010Prop51ColorRGB
 90
-16777216
102
RTVSPost2010PropOp51
 70
     0
102
RTVSPost2010Prop52
140
1.0
102
RTVSPost2010PropOp52
 70
     0
102
RTVSPost2010Prop53
 90
        2
102
RTVSPost2010PropOp53
 70
     1
102
RTVSPost2010Prop54
  1
strokes_ogs.tif
102
RTVSPost2010PropOp54
 70
     1
102
RTVSPost2010Prop55
280
     0
102
RTVSPost2010PropOp55
 70
     1
102
RTVSPost2010Prop56
140
1.0
102
RTVSPost2010PropOp56
 70
     1
102
RTVSPost2010Prop57
140
1.0
102
RTVSPost2010PropOp57
 70
     1
102
RTVSPropertyOp0
 70
     1
102
RTVSPropertyOp1
 70
     1
102
RTVSPropertyOp2
 70
     1
102
RTVSPropertyOp3
 70
     1
102
RTVSPropertyOp4
 70
     1
102
RTVSPropertyOp5
 70
     1
102
RTVSPropertyOp6
 70
     1
102
RTVSPropertyOp7
 70
     1
102
RTVSPropertyOp8
 70
     1
102
RTVSPropertyOp9
 70
     1
102
RTVSPropertyOp10
 70
     1
102
RTVSPropertyOp11
 70
     1
102
RTVSPropertyOp12
 70
     1
102
RTVSPropertyOp13
 70
     1
102
RTVSPropertyOp14
 70
     1
102
RTVSPropertyOp15
 70
     1
102
RTVSPropertyOp16
 70
     1
102
RTVSPropertyOp17
 70
     1
102
RTVSPropertyOp18
 70
     1
102
RTVSPropertyOp19
 70
     1
102
RTVSPropertyOp20
 70
     1
102
RTVSPropertyOp21
 70
     1
102
RTVSPropertyOp22
 70
     1
102
RTVSPropertyOp23
 70
     1
102
RTVSPropertyOp24
 70
     1
102
RTVSPropertyOp25
 70
     1
102
RTVSPropertyOp26
 70
     1
102
RTVSPropertyOp27
 70
     1
102
RTVSPropertyOp28
 70
     1
102
RTVSPropertyOp29
 70
     1
102
RTVSPropertyOp30
 70
     1
102
RTVSPropertyOp31
 70
     1
102
RTVSPropertyOp32
 70
     1
102
RTVSPropertyOp33
 70
     1
102
RTVSPropertyOp34
 70
     1
102
RTVSPropertyOp35
 70
     1
102
RTVSPropertyOp36
 70
     1
102
RTVSPropertyOp37
 70
     1
102
RTVSPropertyOp38
 70
     1
102
RTVSPropertyOp39
 70
     1
102
RTVSPropertyOp40
 70
     1
102
RTVSPropertyOp41
 70
     1
102
RTVSPropertyOp42
 70
     1
102
RTVSPropertyOp43
 70
     1
102
RTVSPropertyOp44
 70
     1
102
RTVSPropertyOp45
 70
     1
102
RTVSPropertyOp46
 70
     1
102
RTVSPropertyOp47
 70
     1
102
RTVSPropertyOp48
 70
     1
102
RTVSPropertyOp49
 70
     1
102
RTVSPropertyOp50
 70
     1
102
RTVSPropertyOp51
 70
     0
102
RTVSPropertyOp52
 70
     0
102
RTVSPropertyOp53
 70
     1
102
RTVSPropertyOp54
 70
     1
102
RTVSPropertyOp55
 70
     1
102
RTVSPropertyOp56
 70
     1
102
RTVSPropertyOp57
 70
     1
102
RTVSPropertyOp58
 70
     1
102
RTVSPropertyOp59
 70
     1
102
RTVSPropertyOp60
 70
     1
102
RTVSPropertyOp61
 70
     1
102
RTVSPropertyOp62
 70
     1
  0
XRECORD
  5
BC
102
{ACAD_REACTORS
330
BB
102
}
330
BB
100
AcDbXrecord
280
     1
102
RTVSPost2010Prop28
280
     0
102
RTVSPost2010PropOp28
 70
     1
102
RTVSPost2010Prop29
280
     1
102
RTVSPost2010PropOp29
 70
     1
102
RTVSPost2010Prop30
280
     1
102
RTVSPost2010PropOp30
 70
     1
102
RTVSPost2010Prop31
280
     0
102
RTVSPost2010PropOp31
 70
     1
102
RTVSPost2010Prop32
280
     0
102
RTVSPost2010PropOp32
 70
     1
102
RTVSPost2010Prop33
280
     0
102
RTVSPost2010PropOp33
 70
     1
102
RTVSPost2010Prop34
280
     0
102
RTVSPost2010PropOp34
 70
     1
102
RTVSPost2010Prop35
280
     0
102
RTVSPost2010PropOp35
 70
     1
102
RTVSPost2010Prop36
280
     0
102
RTVSPost2010PropOp36
 70
     1
102
RTVSPost2010Prop37
 90
       50
102
RTVSPost2010PropOp37
 70
     1
102
RTVSPost2010Prop38
140
0.0
102
RTVSPost2010PropOp38
 70
     1
102
RTVSPost2010Prop39
140
1.0
102
RTVSPost2010PropOp39
 70
     1
102
RTVSPost2010Prop40
 90
        0
102
RTVSPost2010PropOp40
 70
     1
102
RTVSPost2010Prop41ColorIndex
 90
       18
102
RTVSPost2010Prop41ColorRGB
 90
        0
102
RTVSPost2010PropOp41
 70
     1
102
RTVSPost2010Prop42
 90
       50
102
RTVSPost2010PropOp42
 70
     1
102
RTVSPost2010Prop43
 90
        3
102
RTVSPost2010PropOp43
 70
     1
102
RTVSPost2010Prop44ColorIndex
 90
        5
102
RTVSPost2010Prop44ColorRGB
 90
      255
102
RTVSPost2010PropOp44
 70
     1
102
RTVSPost2010Prop45
280
     0
102
RTVSPost2010PropOp45
 70
     1
102
RTVSPost2010Prop46
 90
       50
102
RTVSPost2010PropOp46
 70
     1
102
RTVSPost2010Prop47
 90
       50
102
RTVSPost2010PropOp47
 70
     1
102
RTVSPost2010Prop48
 90
       50
102
RTVSPost2010PropOp48
 70
     1
102
RTVSPost2010Prop49
280
     0
102
RTVSPost2010PropOp49
 70
     1
102
RTVSPost2010Prop50
 90
       50
102
RTVSPost2010PropOp50
 70
     1
102
RTVSPost2010Prop51ColorIndex
 90
      256
102
RTVSPost2010Prop51ColorRGB
 90
-16777216
102
RTVSPost2010PropOp51
 70
     0
102
RTVSPost2010Prop52
140
1.0
102
RTVSPost2010PropOp52
 70
     0
102
RTVSPost2010Prop53
 90
        2
102
RTVSPost2010PropOp53
 70
     1
102
RTVSPost2010Prop54
  1
strokes_ogs.tif
102
RTVSPost2010PropOp54
 70
     1
102
RTVSPost2010Prop55
280
     0
102
RTVSPost2010PropOp55
 70
     1
102
RTVSPost2010Prop56
140
1.0
102
RTVSPost2010PropOp56
 70
     1
102
RTVSPost2010Prop57
140
1.0
102
RTVSPost2010PropOp57
 70
     1
102
RTVSPropertyOp0
 70
     1
102
RTVSPropertyOp1
 70
     1
102
RTVSPropertyOp2
 70
     1
102
RTVSPropertyOp3
 70
     1
102
RTVSPropertyOp4
 70
     1
102
RTVSPropertyOp5
 70
     1
102
RTVSPropertyOp6
 70
     1
102
RTVSPropertyOp7
 70
     1
102
RTVSPropertyOp8
 70
     1
102
RTVSPropertyOp9
 70
     1
102
RTVSPropertyOp10
 70
     1
102
RTVSPropertyOp11
 70
     1
102
RTVSPropertyOp12
 70
     1
102
RTVSPropertyOp13
 70
     1
102
RTVSPropertyOp14
 70
     1
102
RTVSPropertyOp15
 70
     1
102
RTVSPropertyOp16
 70
     1
102
RTVSPropertyOp17
 70
     1
102
RTVSPropertyOp18
 70
     1
102
RTVSPropertyOp19
 70
     1
102
RTVSPropertyOp20
 70
     1
102
RTVSPropertyOp21
 70
     1
102
RTVSPropertyOp22
 70
     1
102
RTVSPropertyOp23
 70
     1
102
RTVSPropertyOp24
 70
     1
102
RTVSPropertyOp25
 70
     1
102
RTVSPropertyOp26
 70
     1
102
RTVSPropertyOp27
 70
     1
102
RTVSPropertyOp28
 70
     1
102
RTVSPropertyOp29
 70
     1
102
RTVSPropertyOp30
 70
     1
102
RTVSPropertyOp31
 70
     1
102
RTVSPropertyOp32
 70
     1
102
RTVSPropertyOp33
 70
     1
102
RTVSPropertyOp34
 70
     1
102
RTVSPropertyOp35
 70
     1
102
RTVSPropertyOp36
 70
     1
102
RTVSPropertyOp37
 70
     1
102
RTVSPropertyOp38
 70
     1
102
RTVSPropertyOp39
 70
     1
102
RTVSPropertyOp40
 70
     1
102
RTVSPropertyOp41
 70
     1
102
RTVSPropertyOp42
 70
     1
102
RTVSPropertyOp43
 70
     1
102
RTVSPropertyOp44
 70
     1
102
RTVSPropertyOp45
 70
     1
102
RTVSPropertyOp46
 70
     1
102
RTVSPropertyOp47
 70
     1
102
RTVSPropertyOp48
 70
     1
102
RTVSPropertyOp49
 70
     1
102
RTVSPropertyOp50
 70
     1
102
RTVSPropertyOp51
 70
     0
102
RTVSPropertyOp52
 70
     0
102
RTVSPropertyOp53
 70
     1
102
RTVSPropertyOp54
 70
     1
102
RTVSPropertyOp55
 70
     1
102
RTVSPropertyOp56
 70
     1
102
RTVSPropertyOp57
 70
     1
102
RTVSPropertyOp58
 70
     1
102
RTVSPropertyOp59
 70
     1
102
RTVSPropertyOp60
 70
     1
102
RTVSPropertyOp61
 70
     1
102
RTVSPropertyOp62
 70
     1
  0
XRECORD
  5
D8
102
{ACAD_REACTORS
330
D7
102
}
330
D7
100
AcDbXrecord
280
     1
102
RTVSPost2010Prop28
280
     0
102
RTVSPost2010PropOp28
 70
     0
102
RTVSPost2010Prop29
280
     1
102
RTVSPost2010PropOp29
 70
     0
102
RTVSPost2010Prop30
280
     1
102
RTVSPost2010PropOp30
 70
     0
102
RTVSPost2010Prop31
280
     0
102
RTVSPost2010PropOp31
 70
     0
102
RTVSPost2010Prop32
280
     0
102
RTVSPost2010PropOp32
 70
     0
102
RTVSPost2010Prop33
280
     0
102
RTVSPost2010PropOp33
 70
     0
102
RTVSPost2010Prop34
280
     0
102
RTVSPost2010PropOp34
 70
     0
102
RTVSPost2010Prop35
280
     0
102
RTVSPost2010PropOp35
 70
     0
102
RTVSPost2010Prop36
280
     0
102
RTVSPost2010PropOp36
 70
     0
102
RTVSPost2010Prop37
 90
       50
102
RTVSPost2010PropOp37
 70
     0
102
RTVSPost2010Prop38
140
0.0
102
RTVSPost2010PropOp38
 70
     0
102
RTVSPost2010Prop39
140
1.0
102
RTVSPost2010PropOp39
 70
     0
102
RTVSPost2010Prop40
 90
        0
102
RTVSPost2010PropOp40
 70
     0
102
RTVSPost2010Prop41ColorIndex
 90
       18
102
RTVSPost2010Prop41ColorRGB
 90
        0
102
RTVSPost2010PropOp41
 70
     0
102
RTVSPost2010Prop42
 90
       50
102
RTVSPost2010PropOp42
 70
     0
102
RTVSPost2010Prop43
 90
        3
102
RTVSPost2010PropOp43
 70
     0
102
RTVSPost2010Prop44ColorIndex
 90
        5
102
RTVSPost2010Prop44ColorRGB
 90
      255
102
RTVSPost2010PropOp44
 70
     0
102
RTVSPost2010Prop45
280
     0
102
RTVSPost2010PropOp45
 70
     0
102
RTVSPost2010Prop46
 90
       50
102
RTVSPost2010PropOp46
 70
     0
102
RTVSPost2010Prop47
 90
       50
102
RTVSPost2010PropOp47
 70
     0
102
RTVSPost2010Prop48
 90
       50
102
RTVSPost2010PropOp48
 70
     0
102
RTVSPost2010Prop49
280
     0
102
RTVSPost2010PropOp49
 70
     0
102
RTVSPost2010Prop50
 90
       50
102
RTVSPost2010PropOp50
 70
     0
102
RTVSPost2010Prop51ColorIndex
 90
      256
102
RTVSPost2010Prop51ColorRGB
 90
-16777216
102
RTVSPost2010PropOp51
 70
     0
102
RTVSPost2010Prop52
140
1.0
102
RTVSPost2010PropOp52
 70
     0
102
RTVSPost2010Prop53
 90
        2
102
RTVSPost2010PropOp53
 70
     0
102
RTVSPost2010Prop54
  1
strokes_ogs.tif
102
RTVSPost2010PropOp54
 70
     0
102
RTVSPost2010Prop55
280
     0
102
RTVSPost2010PropOp55
 70
     0
102
RTVSPost2010Prop56
140
1.0
102
RTVSPost2010PropOp56
 70
     0
102
RTVSPost2010Prop57
140
1.0
102
RTVSPost2010PropOp57
 70
     0
102
RTVSPropertyOp0
 70
     0
102
RTVSPropertyOp1
 70
     0
102
RTVSPropertyOp2
 70
     0
102
RTVSPropertyOp3
 70
     0
102
RTVSPropertyOp4
 70
     0
102
RTVSPropertyOp5
 70
     0
102
RTVSPropertyOp6
 70
     0
102
RTVSPropertyOp7
 70
     0
102
RTVSPropertyOp8
 70
     0
102
RTVSPropertyOp9
 70
     0
102
RTVSPropertyOp10
 70
     0
102
RTVSPropertyOp11
 70
     0
102
RTVSPropertyOp12
 70
     0
102
RTVSPropertyOp13
 70
     0
102
RTVSPropertyOp14
 70
     2
102
RTVSPropertyOp15
 70
     0
102
RTVSPropertyOp16
 70
     0
102
RTVSPropertyOp17
 70
     0
102
RTVSPropertyOp18
 70
     0
102
RTVSPropertyOp19
 70
     0
102
RTVSPropertyOp20
 70
     0
102
RTVSPropertyOp21
 70
     0
102
RTVSPropertyOp22
 70
     0
102
RTVSPropertyOp23
 70
     0
102
RTVSPropertyOp24
 70
     0
102
RTVSPropertyOp25
 70
     0
102
RTVSPropertyOp26
 70
     0
102
RTVSPropertyOp27
 70
     0
102
RTVSPropertyOp28
 70
     0
102
RTVSPropertyOp29
 70
     0
102
RTVSPropertyOp30
 70
     0
102
RTVSPropertyOp31
 70
     0
102
RTVSPropertyOp32
 70
     0
102
RTVSPropertyOp33
 70
     0
102
RTVSPropertyOp34
 70
     0
102
RTVSPropertyOp35
 70
     0
102
RTVSPropertyOp36
 70
     0
102
RTVSPropertyOp37
 70
     0
102
RTVSPropertyOp38
 70
     0
102
RTVSPropertyOp39
 70
     0
102
RTVSPropertyOp40
 70
     0
102
RTVSPropertyOp41
 70
     0
102
RTVSPropertyOp42
 70
     0
102
RTVSPropertyOp43
 70
     0
102
RTVSPropertyOp44
 70
     0
102
RTVSPropertyOp45
 70
     0
102
RTVSPropertyOp46
 70
     0
102
RTVSPropertyOp47
 70
     0
102
RTVSPropertyOp48
 70
     0
102
RTVSPropertyOp49
 70
     0
102
RTVSPropertyOp50
 70
     0
102
RTVSPropertyOp51
 70
     0
102
RTVSPropertyOp52
 70
     0
102
RTVSPropertyOp53
 70
     0
102
RTVSPropertyOp54
 70
     0
102
RTVSPropertyOp55
 70
     0
102
RTVSPropertyOp56
 70
     0
102
RTVSPropertyOp57
 70
     0
102
RTVSPropertyOp58
 70
     0
102
RTVSPropertyOp59
 70
     0
102
RTVSPropertyOp60
 70
     0
102
RTVSPropertyOp61
 70
     0
102
RTVSPropertyOp62
 70
     0
  0
XRECORD
  5
C8
102
{ACAD_REACTORS
330
C7
102
}
330
C7
100
AcDbXrecord
280
     1
102
RTVSPost2010Prop28
280
     0
102
RTVSPost2010PropOp28
 70
     1
102
RTVSPost2010Prop29
280
     1
102
RTVSPost2010PropOp29
 70
     1
102
RTVSPost2010Prop30
280
     1
102
RTVSPost2010PropOp30
 70
     1
102
RTVSPost2010Prop31
280
     0
102
RTVSPost2010PropOp31
 70
     1
102
RTVSPost2010Prop32
280
     0
102
RTVSPost2010PropOp32
 70
     1
102
RTVSPost2010Prop33
280
     0
102
RTVSPost2010PropOp33
 70
     1
102
RTVSPost2010Prop34
280
     0
102
RTVSPost2010PropOp34
 70
     1
102
RTVSPost2010Prop35
280
     0
102
RTVSPost2010PropOp35
 70
     1
102
RTVSPost2010Prop36
280
     0
102
RTVSPost2010PropOp36
 70
     1
102
RTVSPost2010Prop37
 90
       50
102
RTVSPost2010PropOp37
 70
     1
102
RTVSPost2010Prop38
140
0.0
102
RTVSPost2010PropOp38
 70
     1
102
RTVSPost2010Prop39
140
1.0
102
RTVSPost2010PropOp39
 70
     1
102
RTVSPost2010Prop40
 90
        0
102
RTVSPost2010PropOp40
 70
     1
102
RTVSPost2010Prop41ColorIndex
 90
       18
102
RTVSPost2010Prop41ColorRGB
 90
        0
102
RTVSPost2010PropOp41
 70
     1
102
RTVSPost2010Prop42
 90
       50
102
RTVSPost2010PropOp42
 70
     1
102
RTVSPost2010Prop43
 90
        3
102
RTVSPost2010PropOp43
 70
     1
102
RTVSPost2010Prop44ColorIndex
 90
        5
102
RTVSPost2010Prop44ColorRGB
 90
      255
102
RTVSPost2010PropOp44
 70
     1
102
RTVSPost2010Prop45
280
     0
102
RTVSPost2010PropOp45
 70
     1
102
RTVSPost2010Prop46
 90
       50
102
RTVSPost2010PropOp46
 70
     1
102
RTVSPost2010Prop47
 90
       50
102
RTVSPost2010PropOp47
 70
     1
102
RTVSPost2010Prop48
 90
       50
102
RTVSPost2010PropOp48
 70
     1
102
RTVSPost2010Prop49
280
     0
102
RTVSPost2010PropOp49
 70
     1
102
RTVSPost2010Prop50
 90
       50
102
RTVSPost2010PropOp50
 70
     1
102
RTVSPost2010Prop51ColorIndex
 90
      256
102
RTVSPost2010Prop51ColorRGB
 90
-16777216
102
RTVSPost2010PropOp51
 70
     0
102
RTVSPost2010Prop52
140
1.0
102
RTVSPost2010PropOp52
 70
     0
102
RTVSPost2010Prop53
 90
        2
102
RTVSPost2010PropOp53
 70
     1
102
RTVSPost2010Prop54
  1
strokes_ogs.tif
102
RTVSPost2010PropOp54
 70
     1
102
RTVSPost2010Prop55
280
     0
102
RTVSPost2010PropOp55
 70
     1
102
RTVSPost2010Prop56
140
1.0
102
RTVSPost2010PropOp56
 70
     1
102
RTVSPost2010Prop57
140
1.0
102
RTVSPost2010PropOp57
 70
     1
102
RTVSPropertyOp0
 70
     1
102
RTVSPropertyOp1
 70
     1
102
RTVSPropertyOp2
 70
     1
102
RTVSPropertyOp3
 70
     1
102
RTVSPropertyOp4
 70
     1
102
RTVSPropertyOp5
 70
     1
102
RTVSPropertyOp6
 70
     1
102
RTVSPropertyOp7
 70
     1
102
RTVSPropertyOp8
 70
     1
102
RTVSPropertyOp9
 70
     1
102
RTVSPropertyOp10
 70
     1
102
RTVSPropertyOp11
 70
     1
102
RTVSPropertyOp12
 70
     1
102
RTVSPropertyOp13
 70
     1
102
RTVSPropertyOp14
 70
     1
102
RTVSPropertyOp15
 70
     1
102
RTVSPropertyOp16
 70
     1
102
RTVSPropertyOp17
 70
     1
102
RTVSPropertyOp18
 70
     1
102
RTVSPropertyOp19
 70
     1
102
RTVSPropertyOp20
 70
     1
102
RTVSPropertyOp21
 70
     1
102
RTVSPropertyOp22
 70
     1
102
RTVSPropertyOp23
 70
     1
102
RTVSPropertyOp24
 70
     1
102
RTVSPropertyOp25
 70
     1
102
RTVSPropertyOp26
 70
     1
102
RTVSPropertyOp27
 70
     1
102
RTVSPropertyOp28
 70
     1
102
RTVSPropertyOp29
 70
     1
102
RTVSPropertyOp30
 70
     1
102
RTVSPropertyOp31
 70
     1
102
RTVSPropertyOp32
 70
     1
102
RTVSPropertyOp33
 70
     1
102
RTVSPropertyOp34
 70
     1
102
RTVSPropertyOp35
 70
     1
102
RTVSPropertyOp36
 70
     1
102
RTVSPropertyOp37
 70
     1
102
RTVSPropertyOp38
 70
     1
102
RTVSPropertyOp39
 70
     1
102
RTVSPropertyOp40
 70
     1
102
RTVSPropertyOp41
 70
     1
102
RTVSPropertyOp42
 70
     1
102
RTVSPropertyOp43
 70
     1
102
RTVSPropertyOp44
 70
     1
102
RTVSPropertyOp45
 70
     1
102
RTVSPropertyOp46
 70
     1
102
RTVSPropertyOp47
 70
     1
102
RTVSPropertyOp48
 70
     1
102
RTVSPropertyOp49
 70
     1
102
RTVSPropertyOp50
 70
     1
102
RTVSPropertyOp51
 70
     0
102
RTVSPropertyOp52
 70
     0
102
RTVSPropertyOp53
 70
     1
102
RTVSPropertyOp54
 70
     1
102
RTVSPropertyOp55
 70
     1
102
RTVSPropertyOp56
 70
     1
102
RTVSPropertyOp57
 70
     1
102
RTVSPropertyOp58
 70
     1
102
RTVSPropertyOp59
 70
     1
102
RTVSPropertyOp60
 70
     1
102
RTVSPropertyOp61
 70
     1
102
RTVSPropertyOp62
 70
     1
  0
XRECORD
  5
DA
102
{ACAD_REACTORS
330
D9
102
}
330
D9
100
AcDbXrecord
280
     1
102
RTVSPost2010Prop28
280
     0
102
RTVSPost2010PropOp28
 70
     0
102
RTVSPost2010Prop29
280
     1
102
RTVSPost2010PropOp29
 70
     0
102
RTVSPost2010Prop30
280
     1
102
RTVSPost2010PropOp30
 70
     0
102
RTVSPost2010Prop31
280
     0
102
RTVSPost2010PropOp31
 70
     0
102
RTVSPost2010Prop32
280
     0
102
RTVSPost2010PropOp32
 70
     0
102
RTVSPost2010Prop33
280
     0
102
RTVSPost2010PropOp33
 70
     0
102
RTVSPost2010Prop34
280
     0
102
RTVSPost2010PropOp34
 70
     0
102
RTVSPost2010Prop35
280
     0
102
RTVSPost2010PropOp35
 70
     0
102
RTVSPost2010Prop36
280
     0
102
RTVSPost2010PropOp36
 70
     0
102
RTVSPost2010Prop37
 90
       50
102
RTVSPost2010PropOp37
 70
     0
102
RTVSPost2010Prop38
140
0.0
102
RTVSPost2010PropOp38
 70
     0
102
RTVSPost2010Prop39
140
1.0
102
RTVSPost2010PropOp39
 70
     0
102
RTVSPost2010Prop40
 90
        0
102
RTVSPost2010PropOp40
 70
     0
102
RTVSPost2010Prop41ColorIndex
 90
       18
102
RTVSPost2010Prop41ColorRGB
 90
        0
102
RTVSPost2010PropOp41
 70
     0
102
RTVSPost2010Prop42
 90
       50
102
RTVSPost2010PropOp42
 70
     0
102
RTVSPost2010Prop43
 90
        3
102
RTVSPost2010PropOp43
 70
     0
102
RTVSPost2010Prop44ColorIndex
 90
        5
102
RTVSPost2010Prop44ColorRGB
 90
      255
102
RTVSPost2010PropOp44
 70
     0
102
RTVSPost2010Prop45
280
     0
102
RTVSPost2010PropOp45
 70
     0
102
RTVSPost2010Prop46
 90
       50
102
RTVSPost2010PropOp46
 70
     0
102
RTVSPost2010Prop47
 90
       50
102
RTVSPost2010PropOp47
 70
     0
102
RTVSPost2010Prop48
 90
       50
102
RTVSPost2010PropOp48
 70
     0
102
RTVSPost2010Prop49
280
     0
102
RTVSPost2010PropOp49
 70
     0
102
RTVSPost2010Prop50
 90
       50
102
RTVSPost2010PropOp50
 70
     0
102
RTVSPost2010Prop51ColorIndex
 90
      256
102
RTVSPost2010Prop51ColorRGB
 90
-16777216
102
RTVSPost2010PropOp51
 70
     0
102
RTVSPost2010Prop52
140
1.0
102
RTVSPost2010PropOp52
 70
     0
102
RTVSPost2010Prop53
 90
        2
102
RTVSPost2010PropOp53
 70
     0
102
RTVSPost2010Prop54
  1
strokes_ogs.tif
102
RTVSPost2010PropOp54
 70
     0
102
RTVSPost2010Prop55
280
     0
102
RTVSPost2010PropOp55
 70
     0
102
RTVSPost2010Prop56
140
1.0
102
RTVSPost2010PropOp56
 70
     0
102
RTVSPost2010Prop57
140
1.0
102
RTVSPost2010PropOp57
 70
     0
102
RTVSPropertyOp0
 70
     0
102
RTVSPropertyOp1
 70
     0
102
RTVSPropertyOp2
 70
     0
102
RTVSPropertyOp3
 70
     0
102
RTVSPropertyOp4
 70
     0
102
RTVSPropertyOp5
 70
     0
102
RTVSPropertyOp6
 70
     0
102
RTVSPropertyOp7
 70
     0
102
RTVSPropertyOp8
 70
     0
102
RTVSPropertyOp9
 70
     0
102
RTVSPropertyOp10
 70
     0
102
RTVSPropertyOp11
 70
     0
102
RTVSPropertyOp12
 70
     0
102
RTVSPropertyOp13
 70
     0
102
RTVSPropertyOp14
 70
     2
102
RTVSPropertyOp15
 70
     0
102
RTVSPropertyOp16
 70
     0
102
RTVSPropertyOp17
 70
     0
102
RTVSPropertyOp18
 70
     0
102
RTVSPropertyOp19
 70
     0
102
RTVSPropertyOp20
 70
     0
102
RTVSPropertyOp21
 70
     0
102
RTVSPropertyOp22
 70
     0
102
RTVSPropertyOp23
 70
     0
102
RTVSPropertyOp24
 70
     0
102
RTVSPropertyOp25
 70
     0
102
RTVSPropertyOp26
 70
     0
102
RTVSPropertyOp27
 70
     0
102
RTVSPropertyOp28
 70
     0
102
RTVSPropertyOp29
 70
     0
102
RTVSPropertyOp30
 70
     0
102
RTVSPropertyOp31
 70
     0
102
RTVSPropertyOp32
 70
     0
102
RTVSPropertyOp33
 70
     0
102
RTVSPropertyOp34
 70
     0
102
RTVSPropertyOp35
 70
     0
102
RTVSPropertyOp36
 70
     0
102
RTVSPropertyOp37
 70
     0
102
RTVSPropertyOp38
 70
     0
102
RTVSPropertyOp39
 70
     0
102
RTVSPropertyOp40
 70
     0
102
RTVSPropertyOp41
 70
     0
102
RTVSPropertyOp42
 70
     0
102
RTVSPropertyOp43
 70
     0
102
RTVSPropertyOp44
 70
     0
102
RTVSPropertyOp45
 70
     0
102
RTVSPropertyOp46
 70
     0
102
RTVSPropertyOp47
 70
     0
102
RTVSPropertyOp48
 70
     0
102
RTVSPropertyOp49
 70
     0
102
RTVSPropertyOp50
 70
     0
102
RTVSPropertyOp51
 70
     0
102
RTVSPropertyOp52
 70
     0
102
RTVSPropertyOp53
 70
     0
102
RTVSPropertyOp54
 70
     0
102
RTVSPropertyOp55
 70
     0
102
RTVSPropertyOp56
 70
     0
102
RTVSPropertyOp57
 70
     0
102
RTVSPropertyOp58
 70
     0
102
RTVSPropertyOp59
 70
     0
102
RTVSPropertyOp60
 70
     0
102
RTVSPropertyOp61
 70
     0
102
RTVSPropertyOp62
 70
     0
  0
XRECORD
  5
C0
102
{ACAD_REACTORS
330
BF
102
}
330
BF
100
AcDbXrecord
280
     1
102
RTVSPost2010Prop28
280
     0
102
RTVSPost2010PropOp28
 70
     1
102
RTVSPost2010Prop29
280
     1
102
RTVSPost2010PropOp29
 70
     1
102
RTVSPost2010Prop30
280
     1
102
RTVSPost2010PropOp30
 70
     1
102
RTVSPost2010Prop31
280
     0
102
RTVSPost2010PropOp31
 70
     1
102
RTVSPost2010Prop32
280
     0
102
RTVSPost2010PropOp32
 70
     1
102
RTVSPost2010Prop33
280
     0
102
RTVSPost2010PropOp33
 70
     1
102
RTVSPost2010Prop34
280
     0
102
RTVSPost2010PropOp34
 70
     1
102
RTVSPost2010Prop35
280
     0
102
RTVSPost2010PropOp35
 70
     1
102
RTVSPost2010Prop36
280
     0
102
RTVSPost2010PropOp36
 70
     1
102
RTVSPost2010Prop37
 90
       50
102
RTVSPost2010PropOp37
 70
     1
102
RTVSPost2010Prop38
140
0.0
102
RTVSPost2010PropOp38
 70
     1
102
RTVSPost2010Prop39
140
1.0
102
RTVSPost2010PropOp39
 70
     1
102
RTVSPost2010Prop40
 90
        0
102
RTVSPost2010PropOp40
 70
     1
102
RTVSPost2010Prop41ColorIndex
 90
       18
102
RTVSPost2010Prop41ColorRGB
 90
        0
102
RTVSPost2010PropOp41
 70
     1
102
RTVSPost2010Prop42
 90
       50
102
RTVSPost2010PropOp42
 70
     1
102
RTVSPost2010Prop43
 90
        3
102
RTVSPost2010PropOp43
 70
     1
102
RTVSPost2010Prop44ColorIndex
 90
        5
102
RTVSPost2010Prop44ColorRGB
 90
      255
102
RTVSPost2010PropOp44
 70
     1
102
RTVSPost2010Prop45
280
     0
102
RTVSPost2010PropOp45
 70
     1
102
RTVSPost2010Prop46
 90
       50
102
RTVSPost2010PropOp46
 70
     1
102
RTVSPost2010Prop47
 90
       50
102
RTVSPost2010PropOp47
 70
     1
102
RTVSPost2010Prop48
 90
       50
102
RTVSPost2010PropOp48
 70
     1
102
RTVSPost2010Prop49
280
     0
102
RTVSPost2010PropOp49
 70
     1
102
RTVSPost2010Prop50
 90
       50
102
RTVSPost2010PropOp50
 70
     1
102
RTVSPost2010Prop51ColorIndex
 90
      256
102
RTVSPost2010Prop51ColorRGB
 90
-16777216
102
RTVSPost2010PropOp51
 70
     0
102
RTVSPost2010Prop52
140
1.0
102
RTVSPost2010PropOp52
 70
     0
102
RTVSPost2010Prop53
 90
        2
102
RTVSPost2010PropOp53
 70
     1
102
RTVSPost2010Prop54
  1
strokes_ogs.tif
102
RTVSPost2010PropOp54
 70
     1
102
RTVSPost2010Prop55
280
     0
102
RTVSPost2010PropOp55
 70
     1
102
RTVSPost2010Prop56
140
1.0
102
RTVSPost2010PropOp56
 70
     1
102
RTVSPost2010Prop57
140
1.0
102
RTVSPost2010PropOp57
 70
     1
102
RTVSPropertyOp0
 70
     1
102
RTVSPropertyOp1
 70
     1
102
RTVSPropertyOp2
 70
     1
102
RTVSPropertyOp3
 70
     1
102
RTVSPropertyOp4
 70
     1
102
RTVSPropertyOp5
 70
     1
102
RTVSPropertyOp6
 70
     1
102
RTVSPropertyOp7
 70
     1
102
RTVSPropertyOp8
 70
     1
102
RTVSPropertyOp9
 70
     1
102
RTVSPropertyOp10
 70
     1
102
RTVSPropertyOp11
 70
     1
102
RTVSPropertyOp12
 70
     1
102
RTVSPropertyOp13
 70
     1
102
RTVSPropertyOp14
 70
     1
102
RTVSPropertyOp15
 70
     1
102
RTVSPropertyOp16
 70
     1
102
RTVSPropertyOp17
 70
     1
102
RTVSPropertyOp18
 70
     1
102
RTVSPropertyOp19
 70
     1
102
RTVSPropertyOp20
 70
     1
102
RTVSPropertyOp21
 70
     1
102
RTVSPropertyOp22
 70
     1
102
RTVSPropertyOp23
 70
     1
102
RTVSPropertyOp24
 70
     1
102
RTVSPropertyOp25
 70
     1
102
RTVSPropertyOp26
 70
     1
102
RTVSPropertyOp27
 70
     1
102
RTVSPropertyOp28
 70
     1
102
RTVSPropertyOp29
 70
     1
102
RTVSPropertyOp30
 70
     1
102
RTVSPropertyOp31
 70
     1
102
RTVSPropertyOp32
 70
     1
102
RTVSPropertyOp33
 70
     1
102
RTVSPropertyOp34
 70
     1
102
RTVSPropertyOp35
 70
     1
102
RTVSPropertyOp36
 70
     1
102
RTVSPropertyOp37
 70
     1
102
RTVSPropertyOp38
 70
     1
102
RTVSPropertyOp39
 70
     1
102
RTVSPropertyOp40
 70
     1
102
RTVSPropertyOp41
 70
     1
102
RTVSPropertyOp42
 70
     1
102
RTVSPropertyOp43
 70
     1
102
RTVSPropertyOp44
 70
     1
102
RTVSPropertyOp45
 70
     1
102
RTVSPropertyOp46
 70
     1
102
RTVSPropertyOp47
 70
     1
102
RTVSPropertyOp48
 70
     1
102
RTVSPropertyOp49
 70
     1
102
RTVSPropertyOp50
 70
     1
102
RTVSPropertyOp51
 70
     0
102
RTVSPropertyOp52
 70
     0
102
RTVSPropertyOp53
 70
     1
102
RTVSPropertyOp54
 70
     1
102
RTVSPropertyOp55
 70
     1
102
RTVSPropertyOp56
 70
     1
102
RTVSPropertyOp57
 70
     1
102
RTVSPropertyOp58
 70
     1
102
RTVSPropertyOp59
 70
     1
102
RTVSPropertyOp60
 70
     1
102
RTVSPropertyOp61
 70
     1
102
RTVSPropertyOp62
 70
     1
  0
XRECORD
  5
D6
102
{ACAD_REACTORS
330
D5
102
}
330
D5
100
AcDbXrecord
280
     1
102
RTVSPost2010Prop28
280
     0
102
RTVSPost2010PropOp28
 70
     1
102
RTVSPost2010Prop29
280
     1
102
RTVSPost2010PropOp29
 70
     1
102
RTVSPost2010Prop30
280
     1
102
RTVSPost2010PropOp30
 70
     1
102
RTVSPost2010Prop31
280
     0
102
RTVSPost2010PropOp31
 70
     1
102
RTVSPost2010Prop32
280
     0
102
RTVSPost2010PropOp32
 70
     1
102
RTVSPost2010Prop33
280
     0
102
RTVSPost2010PropOp33
 70
     1
102
RTVSPost2010Prop34
280
     0
102
RTVSPost2010PropOp34
 70
     1
102
RTVSPost2010Prop35
280
     0
102
RTVSPost2010PropOp35
 70
     1
102
RTVSPost2010Prop36
280
     0
102
RTVSPost2010PropOp36
 70
     1
102
RTVSPost2010Prop37
 90
       50
102
RTVSPost2010PropOp37
 70
     1
102
RTVSPost2010Prop38
140
0.0
102
RTVSPost2010PropOp38
 70
     1
102
RTVSPost2010Prop39
140
1.0
102
RTVSPost2010PropOp39
 70
     1
102
RTVSPost2010Prop40
 90
        0
102
RTVSPost2010PropOp40
 70
     1
102
RTVSPost2010Prop41ColorIndex
 90
       18
102
RTVSPost2010Prop41ColorRGB
 90
        0
102
RTVSPost2010PropOp41
 70
     1
102
RTVSPost2010Prop42
 90
       50
102
RTVSPost2010PropOp42
 70
     1
102
RTVSPost2010Prop43
 90
        3
102
RTVSPost2010PropOp43
 70
     1
102
RTVSPost2010Prop44ColorIndex
 90
        5
102
RTVSPost2010Prop44ColorRGB
 90
      255
102
RTVSPost2010PropOp44
 70
     1
102
RTVSPost2010Prop45
280
     0
102
RTVSPost2010PropOp45
 70
     1
102
RTVSPost2010Prop46
 90
       50
102
RTVSPost2010PropOp46
 70
     1
102
RTVSPost2010Prop47
 90
       50
102
RTVSPost2010PropOp47
 70
     1
102
RTVSPost2010Prop48
 90
       50
102
RTVSPost2010PropOp48
 70
     1
102
RTVSPost2010Prop49
280
     0
102
RTVSPost2010PropOp49
 70
     1
102
RTVSPost2010Prop50
 90
       50
102
RTVSPost2010PropOp50
 70
     1
102
RTVSPost2010Prop51ColorIndex
 90
      256
102
RTVSPost2010Prop51ColorRGB
 90
-16777216
102
RTVSPost2010PropOp51
 70
     0
102
RTVSPost2010Prop52
140
1.0
102
RTVSPost2010PropOp52
 70
     0
102
RTVSPost2010Prop53
 90
        2
102
RTVSPost2010PropOp53
 70
     1
102
RTVSPost2010Prop54
  1
strokes_ogs.tif
102
RTVSPost2010PropOp54
 70
     1
102
RTVSPost2010Prop55
280
     0
102
RTVSPost2010PropOp55
 70
     1
102
RTVSPost2010Prop56
140
1.0
102
RTVSPost2010PropOp56
 70
     1
102
RTVSPost2010Prop57
140
1.0
102
RTVSPost2010PropOp57
 70
     1
102
RTVSPropertyOp0
 70
     1
102
RTVSPropertyOp1
 70
     1
102
RTVSPropertyOp2
 70
     1
102
RTVSPropertyOp3
 70
     1
102
RTVSPropertyOp4
 70
     1
102
RTVSPropertyOp5
 70
     1
102
RTVSPropertyOp6
 70
     1
102
RTVSPropertyOp7
 70
     1
102
RTVSPropertyOp8
 70
     1
102
RTVSPropertyOp9
 70
     1
102
RTVSPropertyOp10
 70
     1
102
RTVSPropertyOp11
 70
     1
102
RTVSPropertyOp12
 70
     1
102
RTVSPropertyOp13
 70
     1
102
RTVSPropertyOp14
 70
     1
102
RTVSPropertyOp15
 70
     1
102
RTVSPropertyOp16
 70
     1
102
RTVSPropertyOp17
 70
     1
102
RTVSPropertyOp18
 70
     1
102
RTVSPropertyOp19
 70
     1
102
RTVSPropertyOp20
 70
     1
102
RTVSPropertyOp21
 70
     1
102
RTVSPropertyOp22
 70
     1
102
RTVSPropertyOp23
 70
     1
102
RTVSPropertyOp24
 70
     1
102
RTVSPropertyOp25
 70
     1
102
RTVSPropertyOp26
 70
     1
102
RTVSPropertyOp27
 70
     1
102
RTVSPropertyOp28
 70
     1
102
RTVSPropertyOp29
 70
     1
102
RTVSPropertyOp30
 70
     1
102
RTVSPropertyOp31
 70
     1
102
RTVSPropertyOp32
 70
     1
102
RTVSPropertyOp33
 70
     1
102
RTVSPropertyOp34
 70
     1
102
RTVSPropertyOp35
 70
     1
102
RTVSPropertyOp36
 70
     1
102
RTVSPropertyOp37
 70
     1
102
RTVSPropertyOp38
 70
     1
102
RTVSPropertyOp39
 70
     1
102
RTVSPropertyOp40
 70
     1
102
RTVSPropertyOp41
 70
     1
102
RTVSPropertyOp42
 70
     1
102
RTVSPropertyOp43
 70
     1
102
RTVSPropertyOp44
 70
     1
102
RTVSPropertyOp45
 70
     1
102
RTVSPropertyOp46
 70
     1
102
RTVSPropertyOp47
 70
     1
102
RTVSPropertyOp48
 70
     1
102
RTVSPropertyOp49
 70
     1
102
RTVSPropertyOp50
 70
     1
102
RTVSPropertyOp51
 70
     0
102
RTVSPropertyOp52
 70
     0
102
RTVSPropertyOp53
 70
     1
102
RTVSPropertyOp54
 70
     1
102
RTVSPropertyOp55
 70
     1
102
RTVSPropertyOp56
 70
     1
102
RTVSPropertyOp57
 70
     1
102
RTVSPropertyOp58
 70
     1
102
RTVSPropertyOp59
 70
     1
102
RTVSPropertyOp60
 70
     1
102
RTVSPropertyOp61
 70
     1
102
RTVSPropertyOp62
 70
     1
  0
XRECORD
  5
D4
102
{ACAD_REACTORS
330
D3
102
}
330
D3
100
AcDbXrecord
280
     1
102
RTVSPost2010Prop28
280
     0
102
RTVSPost2010PropOp28
 70
     1
102
RTVSPost2010Prop29
280
     1
102
RTVSPost2010PropOp29
 70
     1
102
RTVSPost2010Prop30
280
     1
102
RTVSPost2010PropOp30
 70
     1
102
RTVSPost2010Prop31
280
     0
102
RTVSPost2010PropOp31
 70
     1
102
RTVSPost2010Prop32
280
     0
102
RTVSPost2010PropOp32
 70
     1
102
RTVSPost2010Prop33
280
     0
102
RTVSPost2010PropOp33
 70
     1
102
RTVSPost2010Prop34
280
     0
102
RTVSPost2010PropOp34
 70
     1
102
RTVSPost2010Prop35
280
     0
102
RTVSPost2010PropOp35
 70
     1
102
RTVSPost2010Prop36
280
     0
102
RTVSPost2010PropOp36
 70
     1
102
RTVSPost2010Prop37
 90
       50
102
RTVSPost2010PropOp37
 70
     1
102
RTVSPost2010Prop38
140
0.0
102
RTVSPost2010PropOp38
 70
     1
102
RTVSPost2010Prop39
140
1.0
102
RTVSPost2010PropOp39
 70
     1
102
RTVSPost2010Prop40
 90
        0
102
RTVSPost2010PropOp40
 70
     1
102
RTVSPost2010Prop41ColorIndex
 90
       18
102
RTVSPost2010Prop41ColorRGB
 90
        0
102
RTVSPost2010PropOp41
 70
     1
102
RTVSPost2010Prop42
 90
       50
102
RTVSPost2010PropOp42
 70
     1
102
RTVSPost2010Prop43
 90
        3
102
RTVSPost2010PropOp43
 70
     1
102
RTVSPost2010Prop44ColorIndex
 90
        5
102
RTVSPost2010Prop44ColorRGB
 90
      255
102
RTVSPost2010PropOp44
 70
     1
102
RTVSPost2010Prop45
280
     0
102
RTVSPost2010PropOp45
 70
     1
102
RTVSPost2010Prop46
 90
       50
102
RTVSPost2010PropOp46
 70
     1
102
RTVSPost2010Prop47
 90
       50
102
RTVSPost2010PropOp47
 70
     1
102
RTVSPost2010Prop48
 90
       50
102
RTVSPost2010PropOp48
 70
     1
102
RTVSPost2010Prop49
280
     0
102
RTVSPost2010PropOp49
 70
     1
102
RTVSPost2010Prop50
 90
       50
102
RTVSPost2010PropOp50
 70
     1
102
RTVSPost2010Prop51ColorIndex
 90
      256
102
RTVSPost2010Prop51ColorRGB
 90
-16777216
102
RTVSPost2010PropOp51
 70
     0
102
RTVSPost2010Prop52
140
1.0
102
RTVSPost2010PropOp52
 70
     0
102
RTVSPost2010Prop53
 90
        2
102
RTVSPost2010PropOp53
 70
     1
102
RTVSPost2010Prop54
  1
strokes_ogs.tif
102
RTVSPost2010PropOp54
 70
     1
102
RTVSPost2010Prop55
280
     0
102
RTVSPost2010PropOp55
 70
     1
102
RTVSPost2010Prop56
140
1.0
102
RTVSPost2010PropOp56
 70
     1
102
RTVSPost2010Prop57
140
1.0
102
RTVSPost2010PropOp57
 70
     1
102
RTVSPropertyOp0
 70
     1
102
RTVSPropertyOp1
 70
     1
102
RTVSPropertyOp2
 70
     1
102
RTVSPropertyOp3
 70
     1
102
RTVSPropertyOp4
 70
     1
102
RTVSPropertyOp5
 70
     1
102
RTVSPropertyOp6
 70
     1
102
RTVSPropertyOp7
 70
     1
102
RTVSPropertyOp8
 70
     1
102
RTVSPropertyOp9
 70
     1
102
RTVSPropertyOp10
 70
     1
102
RTVSPropertyOp11
 70
     1
102
RTVSPropertyOp12
 70
     1
102
RTVSPropertyOp13
 70
     1
102
RTVSPropertyOp14
 70
     1
102
RTVSPropertyOp15
 70
     1
102
RTVSPropertyOp16
 70
     1
102
RTVSPropertyOp17
 70
     1
102
RTVSPropertyOp18
 70
     1
102
RTVSPropertyOp19
 70
     1
102
RTVSPropertyOp20
 70
     1
102
RTVSPropertyOp21
 70
     1
102
RTVSPropertyOp22
 70
     1
102
RTVSPropertyOp23
 70
     1
102
RTVSPropertyOp24
 70
     1
102
RTVSPropertyOp25
 70
     1
102
RTVSPropertyOp26
 70
     1
102
RTVSPropertyOp27
 70
     1
102
RTVSPropertyOp28
 70
     1
102
RTVSPropertyOp29
 70
     1
102
RTVSPropertyOp30
 70
     1
102
RTVSPropertyOp31
 70
     1
102
RTVSPropertyOp32
 70
     1
102
RTVSPropertyOp33
 70
     1
102
RTVSPropertyOp34
 70
     1
102
RTVSPropertyOp35
 70
     1
102
RTVSPropertyOp36
 70
     1
102
RTVSPropertyOp37
 70
     1
102
RTVSPropertyOp38
 70
     1
102
RTVSPropertyOp39
 70
     1
102
RTVSPropertyOp40
 70
     1
102
RTVSPropertyOp41
 70
     1
102
RTVSPropertyOp42
 70
     1
102
RTVSPropertyOp43
 70
     1
102
RTVSPropertyOp44
 70
     1
102
RTVSPropertyOp45
 70
     1
102
RTVSPropertyOp46
 70
     1
102
RTVSPropertyOp47
 70
     1
102
RTVSPropertyOp48
 70
     1
102
RTVSPropertyOp49
 70
     1
102
RTVSPropertyOp50
 70
     1
102
RTVSPropertyOp51
 70
     0
102
RTVSPropertyOp52
 70
     0
102
RTVSPropertyOp53
 70
     1
102
RTVSPropertyOp54
 70
     1
102
RTVSPropertyOp55
 70
     1
102
RTVSPropertyOp56
 70
     1
102
RTVSPropertyOp57
 70
     1
102
RTVSPropertyOp58
 70
     1
102
RTVSPropertyOp59
 70
     1
102
RTVSPropertyOp60
 70
     1
102
RTVSPropertyOp61
 70
     1
102
RTVSPropertyOp62
 70
     1
  0
XRECORD
  5
CE
102
{ACAD_REACTORS
330
CD
102
}
330
CD
100
AcDbXrecord
280
     1
102
RTVSPost2010Prop28
280
     0
102
RTVSPost2010PropOp28
 70
     1
102
RTVSPost2010Prop29
280
     1
102
RTVSPost2010PropOp29
 70
     1
102
RTVSPost2010Prop30
280
     1
102
RTVSPost2010PropOp30
 70
     1
102
RTVSPost2010Prop31
280
     0
102
RTVSPost2010PropOp31
 70
     1
102
RTVSPost2010Prop32
280
     0
102
RTVSPost2010PropOp32
 70
     1
102
RTVSPost2010Prop33
280
     0
102
RTVSPost2010PropOp33
 70
     1
102
RTVSPost2010Prop34
280
     0
102
RTVSPost2010PropOp34
 70
     1
102
RTVSPost2010Prop35
280
     0
102
RTVSPost2010PropOp35
 70
     1
102
RTVSPost2010Prop36
280
     0
102
RTVSPost2010PropOp36
 70
     1
102
RTVSPost2010Prop37
 90
       50
102
RTVSPost2010PropOp37
 70
     1
102
RTVSPost2010Prop38
140
0.0
102
RTVSPost2010PropOp38
 70
     1
102
RTVSPost2010Prop39
140
1.0
102
RTVSPost2010PropOp39
 70
     1
102
RTVSPost2010Prop40
 90
        0
102
RTVSPost2010PropOp40
 70
     1
102
RTVSPost2010Prop41ColorIndex
 90
       18
102
RTVSPost2010Prop41ColorRGB
 90
        0
102
RTVSPost2010PropOp41
 70
     1
102
RTVSPost2010Prop42
 90
       50
102
RTVSPost2010PropOp42
 70
     1
102
RTVSPost2010Prop43
 90
        3
102
RTVSPost2010PropOp43
 70
     1
102
RTVSPost2010Prop44ColorIndex
 90
        5
102
RTVSPost2010Prop44ColorRGB
 90
      255
102
RTVSPost2010PropOp44
 70
     1
102
RTVSPost2010Prop45
280
     0
102
RTVSPost2010PropOp45
 70
     1
102
RTVSPost2010Prop46
 90
       50
102
RTVSPost2010PropOp46
 70
     1
102
RTVSPost2010Prop47
 90
       50
102
RTVSPost2010PropOp47
 70
     1
102
RTVSPost2010Prop48
 90
       50
102
RTVSPost2010PropOp48
 70
     1
102
RTVSPost2010Prop49
280
     0
102
RTVSPost2010PropOp49
 70
     1
102
RTVSPost2010Prop50
 90
       50
102
RTVSPost2010PropOp50
 70
     1
102
RTVSPost2010Prop51ColorIndex
 90
      256
102
RTVSPost2010Prop51ColorRGB
 90
-16777216
102
RTVSPost2010PropOp51
 70
     0
102
RTVSPost2010Prop52
140
1.0
102
RTVSPost2010PropOp52
 70
     0
102
RTVSPost2010Prop53
 90
        2
102
RTVSPost2010PropOp53
 70
     1
102
RTVSPost2010Prop54
  1
strokes_ogs.tif
102
RTVSPost2010PropOp54
 70
     1
102
RTVSPost2010Prop55
280
     0
102
RTVSPost2010PropOp55
 70
     1
102
RTVSPost2010Prop56
140
1.0
102
RTVSPost2010PropOp56
 70
     1
102
RTVSPost2010Prop57
140
1.0
102
RTVSPost2010PropOp57
 70
     1
102
RTVSPropertyOp0
 70
     1
102
RTVSPropertyOp1
 70
     1
102
RTVSPropertyOp2
 70
     1
102
RTVSPropertyOp3
 70
     1
102
RTVSPropertyOp4
 70
     1
102
RTVSPropertyOp5
 70
     1
102
RTVSPropertyOp6
 70
     1
102
RTVSPropertyOp7
 70
     1
102
RTVSPropertyOp8
 70
     1
102
RTVSPropertyOp9
 70
     1
102
RTVSPropertyOp10
 70
     1
102
RTVSPropertyOp11
 70
     1
102
RTVSPropertyOp12
 70
     1
102
RTVSPropertyOp13
 70
     1
102
RTVSPropertyOp14
 70
     1
102
RTVSPropertyOp15
 70
     1
102
RTVSPropertyOp16
 70
     1
102
RTVSPropertyOp17
 70
     1
102
RTVSPropertyOp18
 70
     1
102
RTVSPropertyOp19
 70
     1
102
RTVSPropertyOp20
 70
     1
102
RTVSPropertyOp21
 70
     1
102
RTVSPropertyOp22
 70
     1
102
RTVSPropertyOp23
 70
     1
102
RTVSPropertyOp24
 70
     1
102
RTVSPropertyOp25
 70
     1
102
RTVSPropertyOp26
 70
     1
102
RTVSPropertyOp27
 70
     1
102
RTVSPropertyOp28
 70
     1
102
RTVSPropertyOp29
 70
     1
102
RTVSPropertyOp30
 70
     1
102
RTVSPropertyOp31
 70
     1
102
RTVSPropertyOp32
 70
     1
102
RTVSPropertyOp33
 70
     1
102
RTVSPropertyOp34
 70
     1
102
RTVSPropertyOp35
 70
     1
102
RTVSPropertyOp36
 70
     1
102
RTVSPropertyOp37
 70
     1
102
RTVSPropertyOp38
 70
     1
102
RTVSPropertyOp39
 70
     1
102
RTVSPropertyOp40
 70
     1
102
RTVSPropertyOp41
 70
     1
102
RTVSPropertyOp42
 70
     1
102
RTVSPropertyOp43
 70
     1
102
RTVSPropertyOp44
 70
     1
102
RTVSPropertyOp45
 70
     1
102
RTVSPropertyOp46
 70
     1
102
RTVSPropertyOp47
 70
     1
102
RTVSPropertyOp48
 70
     1
102
RTVSPropertyOp49
 70
     1
102
RTVSPropertyOp50
 70
     1
102
RTVSPropertyOp51
 70
     0
102
RTVSPropertyOp52
 70
     0
102
RTVSPropertyOp53
 70
     1
102
RTVSPropertyOp54
 70
     1
102
RTVSPropertyOp55
 70
     1
102
RTVSPropertyOp56
 70
     1
102
RTVSPropertyOp57
 70
     1
102
RTVSPropertyOp58
 70
     1
102
RTVSPropertyOp59
 70
     1
102
RTVSPropertyOp60
 70
     1
102
RTVSPropertyOp61
 70
     1
102
RTVSPropertyOp62
 70
     1
  0
XRECORD
  5
D0
102
{ACAD_REACTORS
330
CF
102
}
330
CF
100
AcDbXrecord
280
     1
102
RTVSPost2010Prop28
280
     0
102
RTVSPost2010PropOp28
 70
     1
102
RTVSPost2010Prop29
280
     1
102
RTVSPost2010PropOp29
 70
     1
102
RTVSPost2010Prop30
280
     1
102
RTVSPost2010PropOp30
 70
     1
102
RTVSPost2010Prop31
280
     0
102
RTVSPost2010PropOp31
 70
     1
102
RTVSPost2010Prop32
280
     0
102
RTVSPost2010PropOp32
 70
     1
102
RTVSPost2010Prop33
280
     0
102
RTVSPost2010PropOp33
 70
     1
102
RTVSPost2010Prop34
280
     0
102
RTVSPost2010PropOp34
 70
     1
102
RTVSPost2010Prop35
280
     0
102
RTVSPost2010PropOp35
 70
     1
102
RTVSPost2010Prop36
280
     0
102
RTVSPost2010PropOp36
 70
     1
102
RTVSPost2010Prop37
 90
       50
102
RTVSPost2010PropOp37
 70
     1
102
RTVSPost2010Prop38
140
0.0
102
RTVSPost2010PropOp38
 70
     1
102
RTVSPost2010Prop39
140
1.0
102
RTVSPost2010PropOp39
 70
     1
102
RTVSPost2010Prop40
 90
        0
102
RTVSPost2010PropOp40
 70
     1
102
RTVSPost2010Prop41ColorIndex
 90
       18
102
RTVSPost2010Prop41ColorRGB
 90
        0
102
RTVSPost2010PropOp41
 70
     1
102
RTVSPost2010Prop42
 90
       50
102
RTVSPost2010PropOp42
 70
     1
102
RTVSPost2010Prop43
 90
        3
102
RTVSPost2010PropOp43
 70
     1
102
RTVSPost2010Prop44ColorIndex
 90
        5
102
RTVSPost2010Prop44ColorRGB
 90
      255
102
RTVSPost2010PropOp44
 70
     1
102
RTVSPost2010Prop45
280
     0
102
RTVSPost2010PropOp45
 70
     1
102
RTVSPost2010Prop46
 90
       50
102
RTVSPost2010PropOp46
 70
     1
102
RTVSPost2010Prop47
 90
       50
102
RTVSPost2010PropOp47
 70
     1
102
RTVSPost2010Prop48
 90
       50
102
RTVSPost2010PropOp48
 70
     1
102
RTVSPost2010Prop49
280
     0
102
RTVSPost2010PropOp49
 70
     1
102
RTVSPost2010Prop50
 90
       50
102
RTVSPost2010PropOp50
 70
     1
102
RTVSPost2010Prop51ColorIndex
 90
      256
102
RTVSPost2010Prop51ColorRGB
 90
-16777216
102
RTVSPost2010PropOp51
 70
     0
102
RTVSPost2010Prop52
140
1.0
102
RTVSPost2010PropOp52
 70
     0
102
RTVSPost2010Prop53
 90
        2
102
RTVSPost2010PropOp53
 70
     1
102
RTVSPost2010Prop54
  1
strokes_ogs.tif
102
RTVSPost2010PropOp54
 70
     1
102
RTVSPost2010Prop55
280
     0
102
RTVSPost2010PropOp55
 70
     1
102
RTVSPost2010Prop56
140
1.0
102
RTVSPost2010PropOp56
 70
     1
102
RTVSPost2010Prop57
140
1.0
102
RTVSPost2010PropOp57
 70
     1
102
RTVSPropertyOp0
 70
     1
102
RTVSPropertyOp1
 70
     1
102
RTVSPropertyOp2
 70
     1
102
RTVSPropertyOp3
 70
     1
102
RTVSPropertyOp4
 70
     1
102
RTVSPropertyOp5
 70
     1
102
RTVSPropertyOp6
 70
     1
102
RTVSPropertyOp7
 70
     1
102
RTVSPropertyOp8
 70
     1
102
RTVSPropertyOp9
 70
     1
102
RTVSPropertyOp10
 70
     1
102
RTVSPropertyOp11
 70
     1
102
RTVSPropertyOp12
 70
     1
102
RTVSPropertyOp13
 70
     1
102
RTVSPropertyOp14
 70
     1
102
RTVSPropertyOp15
 70
     1
102
RTVSPropertyOp16
 70
     1
102
RTVSPropertyOp17
 70
     1
102
RTVSPropertyOp18
 70
     1
102
RTVSPropertyOp19
 70
     1
102
RTVSPropertyOp20
 70
     1
102
RTVSPropertyOp21
 70
     1
102
RTVSPropertyOp22
 70
     1
102
RTVSPropertyOp23
 70
     1
102
RTVSPropertyOp24
 70
     1
102
RTVSPropertyOp25
 70
     1
102
RTVSPropertyOp26
 70
     1
102
RTVSPropertyOp27
 70
     1
102
RTVSPropertyOp28
 70
     1
102
RTVSPropertyOp29
 70
     1
102
RTVSPropertyOp30
 70
     1
102
RTVSPropertyOp31
 70
     1
102
RTVSPropertyOp32
 70
     1
102
RTVSPropertyOp33
 70
     1
102
RTVSPropertyOp34
 70
     1
102
RTVSPropertyOp35
 70
     1
102
RTVSPropertyOp36
 70
     1
102
RTVSPropertyOp37
 70
     1
102
RTVSPropertyOp38
 70
     1
102
RTVSPropertyOp39
 70
     1
102
RTVSPropertyOp40
 70
     1
102
RTVSPropertyOp41
 70
     1
102
RTVSPropertyOp42
 70
     1
102
RTVSPropertyOp43
 70
     1
102
RTVSPropertyOp44
 70
     1
102
RTVSPropertyOp45
 70
     1
102
RTVSPropertyOp46
 70
     1
102
RTVSPropertyOp47
 70
     1
102
RTVSPropertyOp48
 70
     1
102
RTVSPropertyOp49
 70
     1
102
RTVSPropertyOp50
 70
     1
102
RTVSPropertyOp51
 70
     0
102
RTVSPropertyOp52
 70
     0
102
RTVSPropertyOp53
 70
     1
102
RTVSPropertyOp54
 70
     1
102
RTVSPropertyOp55
 70
     1
102
RTVSPropertyOp56
 70
     1
102
RTVSPropertyOp57
 70
     1
102
RTVSPropertyOp58
 70
     1
102
RTVSPropertyOp59
 70
     1
102
RTVSPropertyOp60
 70
     1
102
RTVSPropertyOp61
 70
     1
102
RTVSPropertyOp62
 70
     1
  0
XRECORD
  5
C6
102
{ACAD_REACTORS
330
C5
102
}
330
C5
100
AcDbXrecord
280
     1
102
RTVSPost2010Prop28
280
     0
102
RTVSPost2010PropOp28
 70
     1
102
RTVSPost2010Prop29
280
     1
102
RTVSPost2010PropOp29
 70
     1
102
RTVSPost2010Prop30
280
     1
102
RTVSPost2010PropOp30
 70
     1
102
RTVSPost2010Prop31
280
     0
102
RTVSPost2010PropOp31
 70
     1
102
RTVSPost2010Prop32
280
     0
102
RTVSPost2010PropOp32
 70
     1
102
RTVSPost2010Prop33
280
     0
102
RTVSPost2010PropOp33
 70
     1
102
RTVSPost2010Prop34
280
     0
102
RTVSPost2010PropOp34
 70
     1
102
RTVSPost2010Prop35
280
     0
102
RTVSPost2010PropOp35
 70
     1
102
RTVSPost2010Prop36
280
     0
102
RTVSPost2010PropOp36
 70
     1
102
RTVSPost2010Prop37
 90
       50
102
RTVSPost2010PropOp37
 70
     1
102
RTVSPost2010Prop38
140
0.0
102
RTVSPost2010PropOp38
 70
     1
102
RTVSPost2010Prop39
140
1.0
102
RTVSPost2010PropOp39
 70
     1
102
RTVSPost2010Prop40
 90
        0
102
RTVSPost2010PropOp40
 70
     1
102
RTVSPost2010Prop41ColorIndex
 90
       18
102
RTVSPost2010Prop41ColorRGB
 90
        0
102
RTVSPost2010PropOp41
 70
     1
102
RTVSPost2010Prop42
 90
       50
102
RTVSPost2010PropOp42
 70
     1
102
RTVSPost2010Prop43
 90
        3
102
RTVSPost2010PropOp43
 70
     1
102
RTVSPost2010Prop44ColorIndex
 90
        5
102
RTVSPost2010Prop44ColorRGB
 90
      255
102
RTVSPost2010PropOp44
 70
     1
102
RTVSPost2010Prop45
280
     0
102
RTVSPost2010PropOp45
 70
     1
102
RTVSPost2010Prop46
 90
       50
102
RTVSPost2010PropOp46
 70
     1
102
RTVSPost2010Prop47
 90
       50
102
RTVSPost2010PropOp47
 70
     1
102
RTVSPost2010Prop48
 90
       50
102
RTVSPost2010PropOp48
 70
     1
102
RTVSPost2010Prop49
280
     0
102
RTVSPost2010PropOp49
 70
     1
102
RTVSPost2010Prop50
 90
       50
102
RTVSPost2010PropOp50
 70
     1
102
RTVSPost2010Prop51ColorIndex
 90
      256
102
RTVSPost2010Prop51ColorRGB
 90
-16777216
102
RTVSPost2010PropOp51
 70
     0
102
RTVSPost2010Prop52
140
1.0
102
RTVSPost2010PropOp52
 70
     0
102
RTVSPost2010Prop53
 90
        2
102
RTVSPost2010PropOp53
 70
     1
102
RTVSPost2010Prop54
  1
strokes_ogs.tif
102
RTVSPost2010PropOp54
 70
     1
102
RTVSPost2010Prop55
280
     0
102
RTVSPost2010PropOp55
 70
     1
102
RTVSPost2010Prop56
140
1.0
102
RTVSPost2010PropOp56
 70
     1
102
RTVSPost2010Prop57
140
1.0
102
RTVSPost2010PropOp57
 70
     1
102
RTVSPropertyOp0
 70
     1
102
RTVSPropertyOp1
 70
     1
102
RTVSPropertyOp2
 70
     1
102
RTVSPropertyOp3
 70
     1
102
RTVSPropertyOp4
 70
     1
102
RTVSPropertyOp5
 70
     1
102
RTVSPropertyOp6
 70
     1
102
RTVSPropertyOp7
 70
     1
102
RTVSPropertyOp8
 70
     1
102
RTVSPropertyOp9
 70
     1
102
RTVSPropertyOp10
 70
     1
102
RTVSPropertyOp11
 70
     1
102
RTVSPropertyOp12
 70
     1
102
RTVSPropertyOp13
 70
     1
102
RTVSPropertyOp14
 70
     1
102
RTVSPropertyOp15
 70
     1
102
RTVSPropertyOp16
 70
     1
102
RTVSPropertyOp17
 70
     1
102
RTVSPropertyOp18
 70
     1
102
RTVSPropertyOp19
 70
     1
102
RTVSPropertyOp20
 70
     1
102
RTVSPropertyOp21
 70
     1
102
RTVSPropertyOp22
 70
     1
102
RTVSPropertyOp23
 70
     1
102
RTVSPropertyOp24
 70
     1
102
RTVSPropertyOp25
 70
     1
102
RTVSPropertyOp26
 70
     1
102
RTVSPropertyOp27
 70
     1
102
RTVSPropertyOp28
 70
     1
102
RTVSPropertyOp29
 70
     1
102
RTVSPropertyOp30
 70
     1
102
RTVSPropertyOp31
 70
     1
102
RTVSPropertyOp32
 70
     1
102
RTVSPropertyOp33
 70
     1
102
RTVSPropertyOp34
 70
     1
102
RTVSPropertyOp35
 70
     1
102
RTVSPropertyOp36
 70
     1
102
RTVSPropertyOp37
 70
     1
102
RTVSPropertyOp38
 70
     1
102
RTVSPropertyOp39
 70
     1
102
RTVSPropertyOp40
 70
     1
102
RTVSPropertyOp41
 70
     1
102
RTVSPropertyOp42
 70
     1
102
RTVSPropertyOp43
 70
     1
102
RTVSPropertyOp44
 70
     1
102
RTVSPropertyOp45
 70
     1
102
RTVSPropertyOp46
 70
     1
102
RTVSPropertyOp47
 70
     1
102
RTVSPropertyOp48
 70
     1
102
RTVSPropertyOp49
 70
     1
102
RTVSPropertyOp50
 70
     1
102
RTVSPropertyOp51
 70
     0
102
RTVSPropertyOp52
 70
     0
102
RTVSPropertyOp53
 70
     1
102
RTVSPropertyOp54
 70
     1
102
RTVSPropertyOp55
 70
     1
102
RTVSPropertyOp56
 70
     1
102
RTVSPropertyOp57
 70
     1
102
RTVSPropertyOp58
 70
     1
102
RTVSPropertyOp59
 70
     1
102
RTVSPropertyOp60
 70
     1
102
RTVSPropertyOp61
 70
     1
102
RTVSPropertyOp62
 70
     1
  0
XRECORD
  5
BA
102
{ACAD_REACTORS
330
B9
102
}
330
B9
100
AcDbXrecord
280
     1
102
RTVSPost2010Prop28
280
     0
102
RTVSPost2010PropOp28
 70
     1
102
RTVSPost2010Prop29
280
     1
102
RTVSPost2010PropOp29
 70
     1
102
RTVSPost2010Prop30
280
     1
102
RTVSPost2010PropOp30
 70
     1
102
RTVSPost2010Prop31
280
     0
102
RTVSPost2010PropOp31
 70
     1
102
RTVSPost2010Prop32
280
     0
102
RTVSPost2010PropOp32
 70
     1
102
RTVSPost2010Prop33
280
     0
102
RTVSPost2010PropOp33
 70
     1
102
RTVSPost2010Prop34
280
     0
102
RTVSPost2010PropOp34
 70
     1
102
RTVSPost2010Prop35
280
     0
102
RTVSPost2010PropOp35
 70
     1
102
RTVSPost2010Prop36
280
     0
102
RTVSPost2010PropOp36
 70
     1
102
RTVSPost2010Prop37
 90
       50
102
RTVSPost2010PropOp37
 70
     1
102
RTVSPost2010Prop38
140
0.0
102
RTVSPost2010PropOp38
 70
     1
102
RTVSPost2010Prop39
140
1.0
102
RTVSPost2010PropOp39
 70
     1
102
RTVSPost2010Prop40
 90
        0
102
RTVSPost2010PropOp40
 70
     1
102
RTVSPost2010Prop41ColorIndex
 90
       18
102
RTVSPost2010Prop41ColorRGB
 90
        0
102
RTVSPost2010PropOp41
 70
     1
102
RTVSPost2010Prop42
 90
       50
102
RTVSPost2010PropOp42
 70
     1
102
RTVSPost2010Prop43
 90
        3
102
RTVSPost2010PropOp43
 70
     1
102
RTVSPost2010Prop44ColorIndex
 90
        5
102
RTVSPost2010Prop44ColorRGB
 90
      255
102
RTVSPost2010PropOp44
 70
     1
102
RTVSPost2010Prop45
280
     0
102
RTVSPost2010PropOp45
 70
     1
102
RTVSPost2010Prop46
 90
       50
102
RTVSPost2010PropOp46
 70
     1
102
RTVSPost2010Prop47
 90
       50
102
RTVSPost2010PropOp47
 70
     1
102
RTVSPost2010Prop48
 90
       50
102
RTVSPost2010PropOp48
 70
     1
102
RTVSPost2010Prop49
280
     0
102
RTVSPost2010PropOp49
 70
     1
102
RTVSPost2010Prop50
 90
       50
102
RTVSPost2010PropOp50
 70
     1
102
RTVSPost2010Prop51ColorIndex
 90
      256
102
RTVSPost2010Prop51ColorRGB
 90
-16777216
102
RTVSPost2010PropOp51
 70
     0
102
RTVSPost2010Prop52
140
1.0
102
RTVSPost2010PropOp52
 70
     0
102
RTVSPost2010Prop53
 90
        2
102
RTVSPost2010PropOp53
 70
     1
102
RTVSPost2010Prop54
  1
strokes_ogs.tif
102
RTVSPost2010PropOp54
 70
     1
102
RTVSPost2010Prop55
280
     0
102
RTVSPost2010PropOp55
 70
     1
102
RTVSPost2010Prop56
140
1.0
102
RTVSPost2010PropOp56
 70
     1
102
RTVSPost2010Prop57
140
1.0
102
RTVSPost2010PropOp57
 70
     1
102
RTVSPropertyOp0
 70
     1
102
RTVSPropertyOp1
 70
     1
102
RTVSPropertyOp2
 70
     1
102
RTVSPropertyOp3
 70
     1
102
RTVSPropertyOp4
 70
     1
102
RTVSPropertyOp5
 70
     1
102
RTVSPropertyOp6
 70
     1
102
RTVSPropertyOp7
 70
     1
102
RTVSPropertyOp8
 70
     1
102
RTVSPropertyOp9
 70
     1
102
RTVSPropertyOp10
 70
     1
102
RTVSPropertyOp11
 70
     1
102
RTVSPropertyOp12
 70
     1
102
RTVSPropertyOp13
 70
     1
102
RTVSPropertyOp14
 70
     1
102
RTVSPropertyOp15
 70
     1
102
RTVSPropertyOp16
 70
     1
102
RTVSPropertyOp17
 70
     1
102
RTVSPropertyOp18
 70
     1
102
RTVSPropertyOp19
 70
     1
102
RTVSPropertyOp20
 70
     1
102
RTVSPropertyOp21
 70
     1
102
RTVSPropertyOp22
 70
     1
102
RTVSPropertyOp23
 70
     1
102
RTVSPropertyOp24
 70
     1
102
RTVSPropertyOp25
 70
     1
102
RTVSPropertyOp26
 70
     1
102
RTVSPropertyOp27
 70
     1
102
RTVSPropertyOp28
 70
     1
102
RTVSPropertyOp29
 70
     1
102
RTVSPropertyOp30
 70
     1
102
RTVSPropertyOp31
 70
     1
102
RTVSPropertyOp32
 70
     1
102
RTVSPropertyOp33
 70
     1
102
RTVSPropertyOp34
 70
     1
102
RTVSPropertyOp35
 70
     1
102
RTVSPropertyOp36
 70
     1
102
RTVSPropertyOp37
 70
     1
102
RTVSPropertyOp38
 70
     1
102
RTVSPropertyOp39
 70
     1
102
RTVSPropertyOp40
 70
     1
102
RTVSPropertyOp41
 70
     1
102
RTVSPropertyOp42
 70
     1
102
RTVSPropertyOp43
 70
     1
102
RTVSPropertyOp44
 70
     1
102
RTVSPropertyOp45
 70
     1
102
RTVSPropertyOp46
 70
     1
102
RTVSPropertyOp47
 70
     1
102
RTVSPropertyOp48
 70
     1
102
RTVSPropertyOp49
 70
     1
102
RTVSPropertyOp50
 70
     1
102
RTVSPropertyOp51
 70
     0
102
RTVSPropertyOp52
 70
     0
102
RTVSPropertyOp53
 70
     1
102
RTVSPropertyOp54
 70
     1
102
RTVSPropertyOp55
 70
     1
102
RTVSPropertyOp56
 70
     1
102
RTVSPropertyOp57
 70
     1
102
RTVSPropertyOp58
 70
     1
102
RTVSPropertyOp59
 70
     1
102
RTVSPropertyOp60
 70
     1
102
RTVSPropertyOp61
 70
     1
102
RTVSPropertyOp62
 70
     1
  0
XRECORD
  5
D2
102
{ACAD_REACTORS
330
D1
102
}
330
D1
100
AcDbXrecord
280
     1
102
RTVSPost2010Prop28
280
     0
102
RTVSPost2010PropOp28
 70
     1
102
RTVSPost2010Prop29
280
     1
102
RTVSPost2010PropOp29
 70
     1
102
RTVSPost2010Prop30
280
     1
102
RTVSPost2010PropOp30
 70
     1
102
RTVSPost2010Prop31
280
     0
102
RTVSPost2010PropOp31
 70
     1
102
RTVSPost2010Prop32
280
     0
102
RTVSPost2010PropOp32
 70
     1
102
RTVSPost2010Prop33
280
     0
102
RTVSPost2010PropOp33
 70
     1
102
RTVSPost2010Prop34
280
     0
102
RTVSPost2010PropOp34
 70
     1
102
RTVSPost2010Prop35
280
     0
102
RTVSPost2010PropOp35
 70
     1
102
RTVSPost2010Prop36
280
     0
102
RTVSPost2010PropOp36
 70
     1
102
RTVSPost2010Prop37
 90
       50
102
RTVSPost2010PropOp37
 70
     1
102
RTVSPost2010Prop38
140
0.0
102
RTVSPost2010PropOp38
 70
     1
102
RTVSPost2010Prop39
140
1.0
102
RTVSPost2010PropOp39
 70
     1
102
RTVSPost2010Prop40
 90
        0
102
RTVSPost2010PropOp40
 70
     1
102
RTVSPost2010Prop41ColorIndex
 90
       18
102
RTVSPost2010Prop41ColorRGB
 90
        0
102
RTVSPost2010PropOp41
 70
     1
102
RTVSPost2010Prop42
 90
       50
102
RTVSPost2010PropOp42
 70
     1
102
RTVSPost2010Prop43
 90
        3
102
RTVSPost2010PropOp43
 70
     1
102
RTVSPost2010Prop44ColorIndex
 90
        5
102
RTVSPost2010Prop44ColorRGB
 90
      255
102
RTVSPost2010PropOp44
 70
     1
102
RTVSPost2010Prop45
280
     0
102
RTVSPost2010PropOp45
 70
     1
102
RTVSPost2010Prop46
 90
       50
102
RTVSPost2010PropOp46
 70
     1
102
RTVSPost2010Prop47
 90
       50
102
RTVSPost2010PropOp47
 70
     1
102
RTVSPost2010Prop48
 90
       50
102
RTVSPost2010PropOp48
 70
     1
102
RTVSPost2010Prop49
280
     0
102
RTVSPost2010PropOp49
 70
     1
102
RTVSPost2010Prop50
 90
       50
102
RTVSPost2010PropOp50
 70
     1
102
RTVSPost2010Prop51ColorIndex
 90
      256
102
RTVSPost2010Prop51ColorRGB
 90
-16777216
102
RTVSPost2010PropOp51
 70
     0
102
RTVSPost2010Prop52
140
1.0
102
RTVSPost2010PropOp52
 70
     0
102
RTVSPost2010Prop53
 90
        2
102
RTVSPost2010PropOp53
 70
     1
102
RTVSPost2010Prop54
  1
strokes_ogs.tif
102
RTVSPost2010PropOp54
 70
     1
102
RTVSPost2010Prop55
280
     0
102
RTVSPost2010PropOp55
 70
     1
102
RTVSPost2010Prop56
140
1.0
102
RTVSPost2010PropOp56
 70
     1
102
RTVSPost2010Prop57
140
1.0
102
RTVSPost2010PropOp57
 70
     1
102
RTVSPropertyOp0
 70
     1
102
RTVSPropertyOp1
 70
     1
102
RTVSPropertyOp2
 70
     1
102
RTVSPropertyOp3
 70
     1
102
RTVSPropertyOp4
 70
     1
102
RTVSPropertyOp5
 70
     1
102
RTVSPropertyOp6
 70
     1
102
RTVSPropertyOp7
 70
     1
102
RTVSPropertyOp8
 70
     1
102
RTVSPropertyOp9
 70
     1
102
RTVSPropertyOp10
 70
     1
102
RTVSPropertyOp11
 70
     1
102
RTVSPropertyOp12
 70
     1
102
RTVSPropertyOp13
 70
     1
102
RTVSPropertyOp14
 70
     1
102
RTVSPropertyOp15
 70
     1
102
RTVSPropertyOp16
 70
     1
102
RTVSPropertyOp17
 70
     1
102
RTVSPropertyOp18
 70
     1
102
RTVSPropertyOp19
 70
     1
102
RTVSPropertyOp20
 70
     1
102
RTVSPropertyOp21
 70
     1
102
RTVSPropertyOp22
 70
     1
102
RTVSPropertyOp23
 70
     1
102
RTVSPropertyOp24
 70
     1
102
RTVSPropertyOp25
 70
     1
102
RTVSPropertyOp26
 70
     1
102
RTVSPropertyOp27
 70
     1
102
RTVSPropertyOp28
 70
     1
102
RTVSPropertyOp29
 70
     1
102
RTVSPropertyOp30
 70
     1
102
RTVSPropertyOp31
 70
     1
102
RTVSPropertyOp32
 70
     1
102
RTVSPropertyOp33
 70
     1
102
RTVSPropertyOp34
 70
     1
102
RTVSPropertyOp35
 70
     1
102
RTVSPropertyOp36
 70
     1
102
RTVSPropertyOp37
 70
     1
102
RTVSPropertyOp38
 70
     1
102
RTVSPropertyOp39
 70
     1
102
RTVSPropertyOp40
 70
     1
102
RTVSPropertyOp41
 70
     1
102
RTVSPropertyOp42
 70
     1
102
RTVSPropertyOp43
 70
     1
102
RTVSPropertyOp44
 70
     1
102
RTVSPropertyOp45
 70
     1
102
RTVSPropertyOp46
 70
     1
102
RTVSPropertyOp47
 70
     1
102
RTVSPropertyOp48
 70
     1
102
RTVSPropertyOp49
 70
     1
102
RTVSPropertyOp50
 70
     1
102
RTVSPropertyOp51
 70
     0
102
RTVSPropertyOp52
 70
     0
102
RTVSPropertyOp53
 70
     1
102
RTVSPropertyOp54
 70
     1
102
RTVSPropertyOp55
 70
     1
102
RTVSPropertyOp56
 70
     1
102
RTVSPropertyOp57
 70
     1
102
RTVSPropertyOp58
 70
     1
102
RTVSPropertyOp59
 70
     1
102
RTVSPropertyOp60
 70
     1
102
RTVSPropertyOp61
 70
     1
102
RTVSPropertyOp62
 70
     1
  0
ENDSEC
  0
EOF
